Oops, an error
Loading. Please wait.

Remember Me Tab

version 2
version 2

Whole song

3,644 views 42 this week
no commentswrite comment
1 2 3 4 5
excellent!
x 6
add to favorites
launch autoscroll
font size
0
reset
how to read this tab
guitar tuner
Tab Pro tools
  • play this tab
  • loop segment
  • change instrument
  • show fretboard
  • metronome
×
Best way to learn
"Remember Me"
Autoscroll
slow
fast
+/-
esc
set tempo
stop
Contributor
Difficulty
novice
                        Tame Impala - Remember Me

Intro:
Guitar 1:
e|----------------------------------------------------|
B|----------------------------------------------------|
G|-7.-7.-7--7-7.-7.-7--7-7-7-5.-5.-5------------------|
D|-7.-7.-7--7-7.-7.-7--7-7-7-5.-5.-5--5-5.-5.--5-5-5--|
A|-5.-5.-5--5-5.-5.-5--5-5-5-3.-3.-3--5-5.-5.--5-5-5--|
E|------------------------------------3-3.-3.--3-3-3--|

e|--------------------------------------------|
B|--------------------------------------------|
G|-7.-7.-7--7-7.-7.-7--7-7-7-5.-5.-5----------|
D|-7.-7.-7--7-7.-7.-7--7-7-7-5.-5.-5--5-5.----|
A|-5.-5.-5--5-5.-5.-5--5-5-5-3.-3.-3--5-5.----|
E|------------------------------------3-3.----|


Verse:
"Remember me, I'm the one who had your baby's eyes,
Remember me, I'm the one who had your baby's eyes"
Guitar 1:
e|----------------------------------------------------|
B|----------------------------------------------------|
G|-7.-7.-7--7-7.-7.-7--7-7-7-5.-5.-5------------------| x4
D|-7.-7.-7--7-7.-7.-7--7-7-7-5.-5.-5--5-5.-5.--5-5-5--|
A|-5.-5.-5--5-5.-5.-5--5-5-5-3.-3.-3--5-5.-5.--5-5-5--|
E|------------------------------------3-3.-3.--3-3-3--|


Vocalisations:
Guitar 1:
e|----------------------------------------------------|
B|----------------------------------------------------|
G|-7.-7.-7--7-7.-7.-7--7-7-7-5.-5.-5------------------| x3
D|-7.-7.-7--7-7.-7.-7--7-7-7-5.-5.-5--5-5.-5.--5-5-5--|
A|-5.-5.-5--5-5.-5.-5--5-5-5-3.-3.-3--5-5.-5.--5-5-5--|
E|------------------------------------3-3.-3.--3-3-3--|

Guitar 1:
e|--------------------------------------------|
B|--------------------------------------------|
G|-7.-7.-7--7-7.-7.-7--7-7-7-5.-5.-5----------|
D|-7.-7.-7--7-7.-7.-7--7-7-7-5.-5.-5--5-5.----|
A|-5.-5.-5--5-5.-5.-5--5-5-5-3.-3.-3--5-5.----|
E|------------------------------------3-3.----|

2nd guitar plays this in the background:
e|------------------|
B|------------------|
G|-10~-9~-7~~-5~~~~-|
D|------------------|
A|------------------|
E|------------------|


Verse:
"Remember me, I'm the one who had your baby's eyes,
Remember me, I'm the one who had your baby's eyes"
Guitar 1:
e|----------------------------------------------------|
B|----------------------------------------------------|
G|-7.-7.-7--7-7.-7.-7--7-7-7-5.-5.-5------------------| x4
D|-7.-7.-7--7-7.-7.-7--7-7-7-5.-5.-5--5-5.-5.--5-5-5--|
A|-5.-5.-5--5-5.-5.-5--5-5-5-3.-3.-3--5-5.-5.--5-5-5--|
E|------------------------------------3-3.-3.--3-3-3--|


Vocalisations:
Guitar 1:
e|----------------------------------------------------|
B|----------------------------------------------------|
G|-7.-7.-7--7-7.-7.-7--7-7-7-5.-5.-5------------------| x3
D|-7.-7.-7--7-7.-7.-7--7-7-7-5.-5.-5--5-5.-5.--5-5-5--|
A|-5.-5.-5--5-5.-5.-5--5-5-5-3.-3.-3--5-5.-5.--5-5-5--|
E|------------------------------------3-3.-3.--3-3-3--|

Guitar 2:
e|----------------------------------------------------|
B|----------------------------------------------------|
G|-7.-7.-7--7-7.-7.-7--7-7-7-5.-5.-5------------------|
D|------------------------------------5-5.-5.--5-5-5--|
A|----------------------------------------------------|
E|----------------------------------------------------|

e|-----------------------------------------------------------3.--------------|
B|--------------------------------------------------------------6p5-5b6r5----|
G|----------------------------------------------------5-7--------------------|
D|------------------------------------------------5h7------------------------|
A|-5.-5.-5--5-5.-5.-5--5-5-5-3.-3.-3--2-0------------------------------------|
E|----------------------------------------3-1--------------------------------|


Guitar 1:
e|--------------------------------------------|
B|--------------------------------------------|
G|-7.-7.-7--7-7.-7.-7--7-7-7-5.-5.-5----------|
D|-7.-7.-7--7-7.-7.-7--7-7-7-5.-5.-5--5-5.----|
A|-5.-5.-5--5-5.-5.-5--5-5-5-3.-3.-3--5-5.----|
E|------------------------------------3-3.----|

Guitar 2:
e|--------------------------------------|
B|-5\3-3-3-3\1-1-1.-3-3-----------------|
G|--------------------------------------|
D|-------------------------5-3-5b7r5----|
A|--------------------------------------|
E|--------------------------------------|


Verse:
"Remember me, I'm the one who had your baby's eyes,
Remember me, I'm the one who had your baby's eyes"
Guitar 1:
e|----------------------------------------------------|
B|----------------------------------------------------|
G|-7.-7.-7--7-7.-7.-7--7-7-7-5.-5.-5------------------| x4
D|-7.-7.-7--7-7.-7.-7--7-7-7-5.-5.-5--5-5.-5.--5-5-5--|
A|-5.-5.-5--5-5.-5.-5--5-5-5-3.-3.-3--5-5.-5.--5-5-5--|
E|------------------------------------3-3.-3.--3-3-3--|


Guitar solo:
Guitar 2:
e|---------------------------------------|
B|---------------------------------------|
G|-4-/5------5\4-2/4-------------4-/5----| x2
D|--------------------4--4/7-5-----------|
A|---------------------------------------|
E|---------------------------------------|

Guitar 1 keeps the rhythm going:
e|----------------------------------------------------|
B|----------------------------------------------------|
G|-7.-7.-7--7-7.-7.-7--7-7-7-5.-5.-5------------------| x4
D|-7.-7.-7--7-7.-7.-7--7-7-7-5.-5.-5--5-5.-5.--5-5-5--|
A|-5.-5.-5--5-5.-5.-5--5-5-5-3.-3.-3--5-5.-5.--5-5-5--|
E|------------------------------------3-3.-3.--3-3-3--|


Bridge:
Guitar 1 - palm muted:
e|---------------------------|
B|---------------------------|
G|-7.-7.-7--7-7.-7.-7--7-7-7-| x4
D|-7.-7.-7--7-7.-7.-7--7-7-7-|
A|-5.-5.-5--5-5.-5.-5--5-5-5-|
E|---------------------------|

Guitar 2:
e|----------------------|
B|----------------------|
G|----------------------|
D|----------------------|
A|-5--------5/15~~~~~~~~|
E|----------------------|


"Remember me, I'm the one who had your baby's eyes,
Remember me, I'm the one who had your baby's eyes"
Guitar 1 - palm muted:
e|---------------------------|
B|---------------------------|
G|-7.-7.-7--7-7.-7.-7--7-7-7-| x8
D|-7.-7.-7--7-7.-7.-7--7-7-7-|
A|-5.-5.-5--5-5.-5.-5--5-5-5-|
E|---------------------------|

Guitar 2 plays these licks quietly in the background:
e|-----------------------------------------------------------------------------------|
B|----8pb10r8p6----------------------------8pb10r8p6---------------12b14.-12-10------|
G|-------------------------------5.-7~~~~~~----------7.-------------------------11~~~|
D|-----------------------------5-----------------------------------------------------|
A|-------------------------5h7-------------------------------------------------------|
E|-----------------------------------------------------------------------------------|


"Remember me, I'm the one who had your baby's eyes,
Remember me, I'm the one who had your baby's eyes"
Guitar 1 - palm muted:
e|----------------------------------------------------|
B|----------------------------------------------------|
G|-7.-7.-7--7-7.-7.-7--7-7-7-5.-5.-5------------------| \
D|-7.-7.-7--7-7.-7.-7--7-7-7-5.-5.-5--5-5.-5.--5-5-5--|  \
A|-5.-5.-5--5-5.-5.-5--5-5-5-3.-3.-3--5-5.-5.--5-5-5--|   \
E|------------------------------------3-3.-3.--3-3-3--|    |
                                                           | x2
e|----------------------------------------------------|    |
B|----------------------------------------------------|   /
G|-7.-7.-7--7-7.-7.-7--7-7-7-7.-7.-7--7-7.-7.--7-7-7--|  /
D|-7.-7.-7--7-7.-7.-7--7-7-7-7.-7.-7--7-7.-7.--7-7-7--| /
A|-5.-5.-5--5-5.-5.-5--5-5-5-5.-5.-5--5-5.-5.--5-5-5--|
E|----------------------------------------------------|

Guitar 2 continues playing licks quietly in the background:
e|--------------10-------------------------------------------|
B|------------10------------12pb14r12-10---------------------|
G|---------11----------------------------11------------------|
D|-12---12----------------------------------12---------------|
A|-------------------------------------------------------10--|
E|----------------------------------------------10----8------|

e|----------10---------------------------------------|
B|-------------10------------------------------------|
G|----------------11---------------------------------|
D|------------------12------10--10-12-10-10.-12------|
A|-/17~~~\--------------/12--------------------------|
E|---------------------------------------------------|


"Eyes"
Guitar 1 - palm muted:
e|---------------------------|
B|---------------------------|
G|-7.-7.-7--7-7.-7.-7--7-7-7-| x6
D|-7.-7.-7--7-7.-7.-7--7-7-7-|
A|-5.-5.-5--5-5.-5.-5--5-5-5-|
E|---------------------------|


"Remember me, I'm the one who had your baby's,
I'm the one who had your baby's..."
Guitar 1 - palm muted:
e|----------------------------------------------------|
B|----------------------------------------------------|
G|-7.-7.-7--7-7.-7.-7--7-7-7-5.-5.-5------------------| x2
D|-7.-7.-7--7-7.-7.-7--7-7-7-5.-5.-5--5-5.-5.--5-5-5--|
A|-5.-5.-5--5-5.-5.-5--5-5-5-3.-3.-3--5-5.-5.--5-5-5--|
E|------------------------------------3-3.-3.--3-3-3--|

Guitar 2 plays the root notes of the chords:
e|---------------------|
B|---------------------|
G|---------------------| x2
D|---------------------|
A|-5--------3----------|
E|----------------3----|


Lead guitar riff:
"I'm the one who had your baby's...
I'm the one who had your baby's...
I'm the one who had your baby's...
I'm the one who had your baby's..."
Guitar 1:
e|--------------------------------------------------|
B|----------------------------------5b7r5-----------|
G|-----------5-7p5---5---------------------------4~-| x4
D|-3--3--5h7-------7---7p5-7------------------------|
A|----------------------------3--3------------------|
E|-----------------------------------------3--3-----|


Chugging riff section:
"I'm the one who had your baby's...
I'm the one who had your baby's...
I'm the one who had your baby's..."
Guitar 1:
e|---------------------------------------------|
B|---------------------------------------------|
G|---------------------------------------------| x3
D|-7-7--7-7--7-7--7-7--8-8--8-8--10-10--10-10--|
A|-7-7--7-7--7-7--7-7--8-8--8-8--10-10--10-10--|
E|-5-5--5-5--5-5--5-5--6-6--6-6---8--8---8--8--|


"Oh"
Guitar 1:
e|-----------------------------------------|
B|-----------------------------------------|
G|-----------------------------------------|
D|-7-7--7-7--7-7--7-7--8-8-8-8-8-8-8-8-8.--|
A|-7-7--7-7--7-7--7-7--8-8-8-8-8-8-8-8-8.--|
E|-5-5--5-5--5-5--5-5--6-6-6-6-6-6-6-6-6.--|


Verse:
"Remember me, I'm the one who had your baby's eyes,
Remember me, I'm the one who had your baby's eyes"
Guitar 1:
e|----------------------------------------------------|
B|----------------------------------------------------|
G|-7.-7.-7--7-7.-7.-7--7-7-7-5.-5.-5------------------| x4
D|-7.-7.-7--7-7.-7.-7--7-7-7-5.-5.-5--5-5.-5.--5-5-5--|
A|-5.-5.-5--5-5.-5.-5--5-5-5-3.-3.-3--5-5.-5.--5-5-5--|
E|------------------------------------3-3.-3.--3-3-3--|


"Remember me, I'm the one who had your baby's eyes"
Guitar 2 plays these root notes:
e|----------------------------------------------------|
B|----------------------------------------------------|
G|----------------------------------------------------|
D|----------------------------------------------------|
A|-5.-5.-5--5-5.-5.-5--5-5-5-3.-3.-3------------------|
E|------------------------------------3-3.-3.--3-3-3--|

e|------------------------------------------|
B|------------------------------------------|
G|------------------------------------------|
D|------------------------------------------|
A|-5.-5.-5--5-5.-5.-5--5-5-5-3-3-3----------|
E|----------------------------------33-3----|

Guitar 1 keeps playing the rhythm:
e|----------------------------------------------------|
B|----------------------------------------------------|
G|-7.-7.-7--7-7.-7.-7--7-7-7-5.-5.-5------------------|
D|-7.-7.-7--7-7.-7.-7--7-7-7-5.-5.-5--5-5.-5.--5-5-5--|
A|-5.-5.-5--5-5.-5.-5--5-5-5-3.-3.-3--5-5.-5.--5-5-5--|
E|------------------------------------3-3.-3.--3-3-3--|

e|------------------------------------------|
B|------------------------------------------|
G|-7.-7.-7--7-7.-7.-7--7-7-7-5-5-5----------|
D|-7.-7.-7--7-7.-7.-7--7-7-7-5-5-5--55-5----|
A|-5.-5.-5--5-5.-5.-5--5-5-5-3-3-3--55-5----|
E|----------------------------------33-3----|


"Remember me"


End on:
e|------------------|
B|------------------|
G|-7----------------|
D|-7----------------|
A|-5----------------|
E|------------------|



************************************

| /   slide up
| \   slide down
| h   hammer-on
| p   pull-off
| ~   vibrato
| +   harmonic
| x   Mute note
| b   Bend
| pb  Pre-bend
| br  Bend release
| pbr Pre-bend release
| brb Bend release bend
| .   Staccato (mute note after playing it)

************************************
comments
print report bad tab
I want to post or [tab]
guest
You may want to rate the tab now too:
select rating
Please do not post tabs as comments. Select "correction" instead!