Oops, an error
Loading. Please wait.

Runway Houses City Clouds Bass Tab

2,365 views 6 this week
3 commentsread comments
1 2 3 4 5
x 18
add to favorites
launch autoscroll
font size
0
reset
guitar tuner
Autoscroll
slow
fast
+/-
esc
set tempo
stop
Help us to improve Ultimate-Guitar.com Take our survey!
×
Author
Difficulty
intermediate
0:00
G||-------------------------------------------------------------------|
D||------8h108h108h10------8h108h108h10------6h86h86h8-----6h86h84/11-|
A||----8-------------10---8------------10---6---------8---6-----------|
E||8-8-----------------8-8---------------4-4-----------4-4------------|

00:08
G||---------------------------------------------------------------|
D||------8h108h108h10------8h108h108h10------6h86h86h8-----6h86h8-|
A||----8-------------10---8------------10---6---------8---6------8|
E||8-8-----------------8-8---------------4-4-----------4-4--------|

G||-------------------------------------------------------------------|
D||------8h108h108h10------8h108h108h10------6h86h86h8-----6h86h84/11-|
A||----8-------------10---8------------10---6---------8---6-----------|
E||8-8-----------------8-8---------------4-4-----------4-4------------|

G||---------------------------------------------------------------|
D||------8h108h108h10------8h108h108h10------6h86h86h8-----6h86h8-|
A||----8-------------10---8------------10---6---------8---6------8|
E||8-8-----------------8-8---------------4-4-----------4-4--------|


0:33
G||--------------------------------------------------------|
D||--------------------------------------------------------|
A||----8-6--6*----------8*----66-6-6-8--456--6*------------|
E||8-8---------------8-8--------------68-------8-8-10-10*--|

G||---------------------------------|
D||------6h86h86h8-----6h86h86h8----|
A||---6-----------8---6---------8---|
E||4-4-------------4-4--------------|

G||----------------------------------------------------------------------|
D||----------------------------------------------------------------------|
A||----8-6--6*----------6*--6-6---------------666--88--6*-17---17-15-13-9|
E||8-8---------------8-8----------68---10-10*----------------------------|

1:21
G||------------------------------------------------------------------|
D||------6h86h86h8-----6h86h86h8-----8h108h108h10------8h108h108h10--|X3
A||---6-----------8---6---------8---8------------10---8------------10|
E||4-4-------------4-4-----------8-8---------------8-8---------------|


1:53
G||----------------------------------------------------------|
D||17*-------------------------------------------------------|
A||----6-66----------6-6-6-6-6-8*-6-6-6-6----------17-15-13-9|
E||---8-8--8--8/1010---------------------8-8-10-10-----------|

G||------------------------------------------------------------------|
D||------6h86h86h8-----6h86h86h8-----8h108h108h10------8h108h108h10--|X3
A||---6-----------8---6---------8---8------------10---8------------10|
E||4-4-------------4-4-----------8-8---------------8-8---------------|

2:39
G||---------------------------------------------------------------|
D||------6h86h86h8------------------------------------------------|
A||---6-----------8---15*-15-15-13-13-13------15*-15-15-13-13-13--|
E||4-4-------------8*---------------------------------------------|
....
G||-----------|
D||-----------|
A||---8*--6*--|
E||-----------|



3:22
G||------------------------------------------------------------------|
D||------6h86h86h8-----6h86h86h8-----8h108h108h10------8h108h108h10--|X8
A||---6-----------8---6---------8---8------------10---8------------10|
E||4-4-------------4-4-----------8-8---------------8-8---------------|

G||------------------------------------------------------------------|
D||------6h86h86h8----------------13-----------------------13--------|
A||---6-----------8---15*-15-15-13--13-13------15*-15-15-13--13-13---|
E||4-4-------------8*------------------------------------------------|

G||------------------------------------------------|
D||-------------13-----------------------13--------|
A||-15*-15-15-13--13-13------15*-15-15-13--13-13---|
E||------------------------------------------------|

BY YONATHANGARFIAS
t: @YONATHANGARFIAS
Suggest correction
comments
print report bad tab
3 comments total.
0 reply
fatima.torresla 10 Aug 01, 2013 03:27 PM

looooooove this song! great tab

+1 reply
spritez36 125 Jul 16, 2014 11:43 AM

Lack of formatting. Lack of accuracy.

0 reply
dadan9999 32 Mar 07, 2015 09:22 AM

Lack of formatting. Lack of accuracy. Lack of formatting. Lack of accuracy.
Lack of formatting. Lack of accuracy.
Lack of formatting. Lack of accuracy.
Lack of formatting. Lack of accuracy.

guest
You may want to rate the tab now too:
select rating
Wanna post a correction for this tab? Suggest correction