Oops, an error
Loading. Please wait.

Solitude Is Bliss Bass Tab

version 1
version 1

Whole song

9,896 views 51 this week
4 commentsread comments
1 2 3 4 5
excellent!
x 19
add to favorites
launch autoscroll
font size
0
reset
guitar tuner
Autoscroll
slow
fast
+/-
esc
set tempo
stop
Help us to improve Ultimate-Guitar.com Take our survey!
×
Author
Difficulty
novice
G||----------------------------|
D||---------------10-----------|
A||----------1111----1313121012|  X4
E||---101010-------------------|


G|-----------------------------------------------------------------------|
D|-----------------------------------------------------------------------|
A|-----------------------------------------------------------------------|
E|-12121212h14-12121212h14-121212h14-5555h7--555h7---121212h14-121212h14-|
 
0:56 

G||-------------------------------------------------------|
D||---------------10-----------------------10--12121210h12|
A||----------1111----1313121012--------1111---------------|
E||---101010---------------------101010-------------------|

G||----------------------------------------------|
D||---------------10----------------------1212h10|
A||----------1111----1313121012--10101111--------|  
E||---101010-------------------------------------|

G|-----------------------------------------------------------------------|
D|-----------------------------------------------------------------------|
A|-----------------------------------------------------------------------|
E|-12121212h14-12121212h14-121212h14-5555h7--555h7---121212h14-121212h14-|

1:42

G||-------------------------------------------------------|
D||---------------10-----------------------10--12121210h12|
A||----------1111----1313121012--------1111---------------|
E||---101010---------------------101010-------------------|

G||----------------------------------------------|
D||---------------10----------------------1212h10|
A||----------1111----1313121012--10101111--------|  
E||---101010-------------------------------------|

G|-----------------------------------------------------------------------|
D|-----------------------------------------------------------------------|
A|-----------------------------------------------------------------------|
E|-12121212h14-12121212h14-121212h14-121212h14---------------------------|

G|--------------------------|
D|----------8---------------|
A|-------10--10*1010--------|X2
E|----88--------------------|

G||------------------------------------------|
D||------------8-------------8---------------|
A||----88----10--6665-----10---111110108888--|  
E||-------88------------88-------------------|

2:33
G||-----------------------------------------------------|
D||---------------h10----------------888---8888---------|
A||----------88888---8h1088888-----88---888----8/11*4*--|  
E||-----6666------------------66h86---------------------|


G||---------------------------------------------------------------|
D||-----------999-111111-----999-111111/13*-----999-111111/7*-7*--|
A||--------11--------------11-----------------11------------------|  
E||-----999-------------999----------------999--------------------|


G||----------------------------------------------|
D||---------------10----------------------1212h10|
A||----------1111----1313121012--10101111--------|X6  
E||---101010-------------------------------------|


BY YONATHANGARFIAS
T: @YONATHANGARFIAS
Suggest correction
What's this?
You can suggest a correction to this tab. Community and Mods will review your correction and vote to approve or reject it.
comments
print report bad tab
4 comments total. Showing first comments.
0 reply
collideheads 15 wrote on August 1 2013, 03:16 pm

GREAT!! JUST LIKE NICK ALLBROOK DOES!

0 reply
nxaca 16 wrote on August 1 2013, 03:40 pm

blisss tab!!!!!

0 reply
mateusmenezeslopes987654 11 wrote on June 10 2015, 10:59 pm

are you guys sure that's correct?!

guest
You may want to rate the tab now too:
select rating
Please do not post tabs as comments. Select "correction" instead!