Oops, an error
Loading. Please wait.

The Less I Know The Better Tab

version 5
version 5

Intro

Whole song

Interactive

Video

100 views 54 this week
no commentswrite comment
1 2 3 4 5
x 3
add to favorites
launch autoscroll
font size
0
reset
how to read this tab
guitar tuner
Autoscroll
slow
fast
+/-
esc
set tempo
stop
Help us to improve Ultimate-Guitar.com Take our survey!
×
Author
Difficulty
Tuning
intermediate
C# G# E B F# C#
About this tab version
The Bass Intro on Guitar, simple drop C# tuning. Was this info helpful? Yes No
[Intro]

e |---------------------------------------------------------------------------|
B |---------------------------------------------------------------------------|
G |---------------------------------------------------------------------------|
D |---------------------------------------------------------------------------|
A |------------------4/6-4----4/6-4/6\4-2-------7/9-7----4/6-4/6\4-2-0--------|
C#|-4h6r4-2-1--0-00--------0--------------3-33--------3-----------------------|

Then repeats like this

e |---------------------------------------------------------------------------|
B |---------------------------------------------------------------------------|
G |---------------------------------------------------------------------------|
D |---------------------------------------------------------------------------|
A |-----4/6-4----4/6-4/6\4-2-------7/9-7----4/6-4/6\4-2-0---------------------|
C#|0-00--------0--------------3-33--------3-----------------------------------|

 
************************************

| /  Slide up
| \  Slide down
| h  Hammer-on
| r  Release 

************************************
Suggest correction
Give kudos to tab author, rate the tab!
1 2 3 4 5
comments
print report bad tab
guest
You may want to rate the tab now too:
select rating
Wanna post a correction for this tab? Suggest correction