Oops, an error
Loading. Please wait.
We have an official The Less I Know The Better tab made by UG professional guitarists. Check out the tab »
×

The Less I Know The Better Tab

version 5
version 5

Intro

Whole song

Interactive

Video

1,252 views 24 this week
no commentswrite comment
1 2 3 4 5
x 3
add to favorites
launch autoscroll
font size
0
reset
how to read this tab
guitar tuner
Autoscroll
slow
fast
+/-
esc
set tempo
stop
Author
Difficulty
Tuning
intermediate
C# F# B E G# C#
About this tab version
The Bass Intro on Guitar, simple drop C# tuning. Was this info helpful? Yes No
[Intro]

e |-------------------------------------------------------------------------------------------------------|
B |-------------------------------------------------------------------------------------------------------|
G |-------------------------------------------------------------------------------------------------------|
D |-------------------------------------------------------------------------------------------------------|
F# |-----------------7/9/7-5---------7/9-7---7/9-7/9p7-5------------9/12-9------7/9-7/9p7-5---------------|
C#|-------------------------7-0--00--------0-------------7---3--33---------3----------------7---0--00-----|
     fast slide up there^^


if lazy ->
after pull-off on 7 slide to 5, like that :

F# |-----------------7/9/7-5---------7/9-7---7/9-7/9p7/5------------9/12-9------7/9-7/9p7/5---------------|
C#|-------------------------7-0--00--------0-------------7---3--33---------3----------------7---0--00-----|


 
************************************

| /  Slide up
| \  Slide down
| h  Hammer-on
| p  pull- off 

************************************
Suggest correction
Give kudos to tab author, rate the tab!
1 2 3 4 5
comments
print report bad tab
guest
You may want to rate the tab now too:
select rating
Wanna post a correction for this tab? Suggest correction