Oops, an error
Loading. Please wait.
We have an official The Less I Know The Better tab made by UG professional guitarists. Check out the tab »
×

The Less I Know The Better bass

version 2
version 2

Whole song

Interactive

17,972 views 81 this week
no commentswrite comment
1 2 3 4 5
x 11
add to favorites
×
Save as Personal and add changes to this tab that will be seen only by you. Learn more ›
×
You can save this tab as Personal to edit and correct it or add notes. All changes will be seen only by you. Learn more »
launch autoscroll
font size
0
reset
guitar tuner
edit
Autoscroll
slow
fast
+/-
esc
set tempo
stop
Author
Difficulty
intermediate
-------------------------------------------------------------------------------
                             The Less I Know The Better - Tame Impala
-------------------------------------------------------------------------------

A lot of the bass in this song is very low in the mix, so what I tabbed is sort of just 
a suggestion of pretty much what one could play. You could play it more simple, keeping 
to the root except for a few slides here and there, or dance around disco style. Your choice. Thanks.

0:00-1:05
G|-----------------------------------------------------------9/11-9------------|
D|-11-11/13/11-9---------11/13-11----11/13-11/13/11-9--------------------------|
A|---------------11------------------------------------7-77---------7----------|
E|-------------------9-99---------9--------------------------------------------|

1:05-1:39
G|----------------9/11---------------------------------------------------------|
D|-------------------9/11----------------------12/14-12------------------------|
A|-7-77-------7-77-------11----------------------------------------------------|
E|-----9-7-99--------------10-10-10101010-10-10--------------------------------|

1:39-2:20
G|-----------------------------------------------------------9/11-9------------|
D|-11-11/13/11 9---------11/13-11----11/13-11/13/11-9--------------------------|
A|---------------11------------------------------------------------7-----------|
E|-------------------9-99---------9-------------------12-1212------------------|

2:20-2:37
G|----------------9/11-----------------------------------|--|------------------|
D|-------------------9/11----------------------12/14-12--|x2|--11-11/13/11 9---|
A|-7-77-------7-77-------11------------------------------|--|----------------11|
E|-----9-7-99--------------10-10-10101010-10-10----------|--|------------------|

2:37-3:39
G|---------------------9/11-9---------------------9-----------------------------|
D|-------------9-------------9/11-9----------9-11---11--------------------------|
A|-7-77----9/11-11--7-7------------------9h11-----------------------------------|
E|------7h9--------------------------9-99-------------9-------------------------|



************************************

| x  Dead note
| h  Hammer-on
| /  Slide up  

************************************
Suggest correction
Creating personal tab
Creating personal tab
You can edit any tab online and save it as your Personal.

You can edit, replace or remove any tab part or add personal notes – all changes will be seen only by you.

Personal tabs can be accessed anytime from any device, even offline.
Learn more »
comments
print report bad tab
guest
You may want to rate the tab now too:
select rating
Wanna post a correction for this tab? Suggest correction