Oops, an error
Loading. Please wait.

The Less I Know The Better Bass Tab

version 3
version 3

Whole song

Interactive

688 views 39 this week
no commentswrite comment
1 2 3 4 5
x 4
add to favorites
launch autoscroll
font size
0
reset
guitar tuner
Autoscroll
slow
fast
+/-
esc
set tempo
stop
Help us to improve Ultimate-Guitar.com Take our survey!
×
Author
Difficulty
intermediate
About this tab version
Simple and reader friendly tab structure. Was this info helpful? Yes No
The Less I Know The Better - Tame Impala (Currents)
Tuning: Standard (EADG)

Transcribed by ear to the best of my abilities. I hope you enjoy! Please rate, I'd really appreciate it.

[Intro]

G|-6/8\6-------------6/8-6----6/8--6/8\6-----------9/11-9----6/8--6/8\6------|
D|-------9-6-----------------------------9------------------------------9-6--|
A|------------4--4-4--------4---------------7--7-7---------7-----------------|
E|---------------------------------------------------------------------------|

G|--------6/8-6----6/8--6/8\6-----------9/11-9----6/8--6/8\6------|
D|----------------------------9------------------------------9-6--|
A|-4--4-4--------4---------------7--7-7---------7-----------------|
E|----------------------------------------------------------------|

G|--------6/8-6----6/8--6/8\6-----------9/11-9--||
D|----------------------------9-----------------||
A|-4--4-4--------4---------------7--7-7---------||
E|----------------------------------------------||

[Verse 1]

Someone said they left together
I ran out the door to get her
She was holding hands with Trevor
Not the greatest feeling ever
Said, "Pull yourself together
You should try your luck with Heather"
Man I hope they slept together
Oh, the less I know the better
The less I know the better
                                                                     _
G|--------6/8-6-----6/8--6/8\6-----------9/11-9----6/8--6/8\6------|  |
D|------------------------------9-----------------------------9-6--|  |
A|-4--4-4--------4----------------7--7-7---------7-----------------|  | x4
E|-----------------------------------------------------------------| _|

G|--------6/8-6----6/8--6/8\6------------9/11-9--||
D|-----------------------------9-----------------||
A|-4--4-4--------4----------------7--7-7---------||
E|-----------------------------------------------||

[Chorus 1]

Oh my love, can't you see yourself by my side
No surprise when you're on his shoulder like every night
Oh my love, can't you see a child on my mind
Don't suppose we could convince your lover to change his mind
So goodbye

G|---------------------------------------------------------------|
D|-----------------------11-----------------------------/14--11--|
A|-14/7-7--7-7---7-----11--------------------------12------------|
E|-------------7-----9-------9--10-10--10-10-10-10----10---------|

G|-----------------------------------------------------------------------------------------|
D|-----------14/16---------9---------11------------------12--------------------------------|
A|------------------------------11--------11----------12----12-----------------------------|
E|-10--12-12---------10-12----9----9----9------10--10------------9--10-10--10/14-14-14-14--|

G|--------------------------------------------------------------|
D|---------------------11------------------------------/14--11--|
A|-7-7--7-7---7-----11----------------------------12------------|
E|----------7-----9--------9---10-10--10-10-10-10----10---------|

G|--------------------------------------------------------------------------------|
D|-----------14/16---------9---------11------------------12-----------------------|
A|------------------------------11--------11----------12----12--------------------|
E|-10--12-12---------10-12----9----9----9------10--10------------9--10-10--10/14--|

G|--------6/8-6----6/8--6/8\6-----------9/11-9----6/8--||
D|----------------------------9------------------------||
A|-4--4-4--------4---------------7--7-7---------7------||
E|-----------------------------------------------------||

[Verse 2]

She said, "It's not now or never
Wait ten years, we'll be together"
I said, "Better late than never
Just don't make me wait forever"
Don't make me wait forever
Don't make me wait forever
                                                                      _
G|---------6/8-6----6/8--6/8\6-----------9/11-9----6/8--6/8\6------||  |
D|-----------------------------9------------------------------9-6--||  |
A|-4--4-4--------4----------------7--7-7---------7-----------------||  | x4
E|-----------------------------------------------------------------|| _|

[Chorus]

Oh my love, can't you see yourself by my side?
I don't suppose you could convince your lover to change his mind

G|---------------------------------------------------------|
D|---------------------11-------------------------/14--11--|
A|-7-7--7-7---7-----11-----------------------12------------|
E|----------7-----9--------9--10-10-10-10-10----10---------|

G|---------------------------------------------------------------------6/8\6------||
D|-----------14/16---------9---------11------------------12------------------9-6--||
A|------------------------------11--------11----------12----12--------------------||
E|-10--12-12---------10-12----9----9----9------10--10------------9--10------------||

[Outro]

I was doing fine without ya'
'Til I saw your face, now I can't erase
Giving in to all his bullshit
Is this what you want, is this who you are?
I was doing fine without ya'
'Til I saw your eyes turn away from mine
Oh, sweet darling, where he wants you
Said, "Come on Superman, say your stupid line"
Said, "Come on Superman, say your stupid line" 
Said, "Come on Superman, say your stupid line"

G|------------9/11-9--------------------------------------------------|
D|-------9-----------9--------6-9----------11-11-------------7-7-7-7--|
A|---7-7---7------------7-9-9-----------11-----------------7----------|
E|-0-------------------------------9--9----------9\5--5--5------------|

G|--------------9/11-9-------------------------------------------|
D|-------9---9---------9--------6-9------------------------------|
A|---7-7---7--------------7-9-9--------------------7--7-7--------|
E|-0---------------------------------9--9-9-9-9-9----------5--5--|

G|------------9/11-9---------------------------------------------|
D|---------9---------9--------6-9---------11-11-------------7/9--|
A|---7-7-9--------------7-9-9----------11-------11--------7------|
E|-0------------------------------9--9---------------5--5--------|

G|------------9/11-9----------------------------------|
D|-------9-----------9------6-9-----------------------|
A|---7-7---7------------7-9--------------------12-12--|
E|-0-----------------------------9--9-9-9-9-9---------|

G|--------------9/11-9----------------------------|
D|-------9---9---------9--------6-9---------------|
A|---7-7---7--------------7-9-9------------12-12--|
E|-0------------------------------9-9-9-9---------|

G|------------9/11-9------------------------------|
D|-------9-----------9--------6-9-----------------|
A|---7-7---7------------7-9-9--------------12-12--|
E|-0------------------------------9-9-9-9---------|

G|------------9/11-9--------------------------||
D|-------9-----------9------6-9---------------||
A|---7-7---7------------7-9---------------12--||
E|-0-----------------------------9-9-9-9------||


************************************

| /  Slide up
| \  Slide down

************************************
Suggest correction
comments
print report bad tab
guest
You may want to rate the tab now too:
select rating
Wanna post a correction for this tab? Suggest correction