Oops, an error
Loading. Please wait.
We have an official The Less I Know The Better tab made by UG professional guitarists. Check out the tab »
×

The Less I Know The Better chords

version 4
version 4

Whole song

  • My version have the respective corrections in the intro and connection verses.

Interactive

4,162 views 78 this week
1 commentread comment
1 2 3 4 5
x 3
add to favorites
×
Save as Personal and add changes to this tab that will be seen only by you. Learn more ›
×
You can save this tab as Personal to edit and correct it or add notes. All changes will be seen only by you. Learn more »
launch autoscroll
font size
0
reset
transpose
0
reset
display chords
guitar tuner
edit
Autoscroll
slow
fast
+/-
esc
set tempo
stop
About this tab version
My version have the respective corrections in the intro and connection verses. Was this info helpful? Yes No
Strumming
There is no strumming pattern for this song yet. and get +5 IQ
TAB - Intro
e|------------------------------------------------------------------------------------------|
B|------------------------------------------------------------------------------------------|
G|------------------------------------------------------------------------------------------|
D|-2h4-2-0------------2h4-2---2h4-2h4-2-0----------5h7-5---2h4-2h4-2-0----------2h4-2---2h4-|
A|---------2------------------------------2----------------------------2--------------------|
E|-----------0--0-0-------------------------3--3-3-----------------------0--0-0-------------|

CHORD

  Bm     Em
Someone  said they left together
   D   G
I ran  out the door to get her
 Bm     Em
She was holding hands with Trevor
 D       G
Not the greatest feeling ever
 Bm   Em
Said, Pull yourself together
  D         G
You should try your luck with Heather"
 Bm    Em
Then I heard they slept together
 D       G
Oh, the less I know the better
 Bm         Em
 
 D  G
The less I know the better

(Chorus)

  G                   Em          F
Oh my love, can't you see yourself by my side
  G                           Em            F
No surprise when you're on his shoulder like every night
  G                  E              F 
Oh my love, can't you see that you're on my mind
  G                                 Em          F
Don't suppose we could convince your lover to change his mind
   Em
So goodbye

e|-----------------------------------------------------------|
B|-----------------------------------------------------------|
G|-----------------------------------------------------------|
D|--------2h4-2---2h4-2h4-2-0----------5h7-5---2h4-2h4-2-0---|
A|----------------------------2----------------------------2-|
E|-0--0-0-----------------------3--3-3-----------------------|

 Bm        Em
She said, "It's not now or never
 D      G
Wait 10 years, we'll be together"
 Bm      Em 
I said, "Better late than never
 D         G 
Just don't make me wait forever"
 Bm         Em

 D    G
Don't make me wait forever
 Bm         Em

 D    G
Don't make me wait forever


      G              Em           F
Oh my love, can't you see yourself by my side?
        G                              Em        F
I don't suppose you could convince your lover to change his mind


 G               Bm
I was doing fine without ya
 E                   C
'Til I saw your face, now I can't erase
 G                 Bm
Giving in to all his bullshit
 E                    C
Is this what you want, is this who you are?


 G               Bm
I was doing fine without ya
 E                    C
'Til I saw your eyes, turn away from mine
 G                          Bm
Oh, sweet darling, where he wants you
 E                       C
Said, "Come on Superman, say your stupid line"
  G                    Bm

 E                       C
Said, "Come on Superman, say your stupid line"
  G                    Bm

 E                       C
Said, "Come on Superman, say your stupid line"




            
            
Suggest correction
Creating personal tab
Creating personal tab
You can edit any tab online and save it as your Personal.

You can edit, replace or remove any tab part or add personal notes – all changes will be seen only by you.

Personal tabs can be accessed anytime from any device, even offline.
Learn more »
Give kudos to tab author, rate the tab!
1 2 3 4 5
comments
print report bad tab
1 comment total.
0 reply
delaney3luv 10 Jun 30, 2016 12:23 PM

doesn't sound accurate when played on acoustic, but electric may be different. the G chord just doesn't fit that well

guest
You may want to rate the tab now too:
select rating
Wanna post a correction for this tab? Suggest correction