Oops, an error
Loading. Please wait.

The Moment Tab

97 views 3 this week
no commentswrite comment
1 2 3 4 5
2 more votes to show rating
add to favorites
launch autoscroll
font size
0
reset
how to read this tab
guitar tuner
Autoscroll
slow
fast
+/-
esc
set tempo
stop
Help us to improve Ultimate-Guitar.com Take our survey!
×
Author
The solo starts at 2:18, I've learnt this by ear so its not 100% correct, but i think it
sounds pretty good.
I play this with Flange, phaser, Tera Echo and a little bit of Distortion.(timing not
showed, just play along to the
song)


[Solo]

e|---------------------------------------------------------------------------|
B|-12--14--15--14--14b16--12--10--14b16--12--10------------------12--14--15--|
G|----------------------------------------------12-11--11h12p11--------------|
D|---------------------------------------------------------------------------|
A|---------------------------------------------------------------------------|
E|---------------------------------------------------------------------------|

e|---------------------------------------------------------------------------|
B|--14--14b16--12--10--14b16--12--10-----------------12--14--15--14---14b16--|
G|------------------------------------12--11--9--11--------------------------|
D|---------------------------------------------------------------------------|
A|---------------------------------------------------------------------------|
E|---------------------------------------------------------------------------|

e|---------------------------------------------------------------------------|
B|--10--12--14b16--12--10----------12--14--15--14--14b16--12--10--14b16--12--|
G|-------------------------12--11~-------------------------------------------|
D|---------------------------------------------------------------------------|
A|---------------------------------------------------------------------------|
E|---------------------------------------------------------------------------|

e|---------------------------------------------------------------------------|
B|--10-------------------12--14--15--14--14b16--12--10--14b16--12--10--------|
G|------12--11-11/12--9------------------------------------------------11h12-|
D|---------------------------------------------------------------------------|
A|---------------------------------------------------------------------------|
E|---------------------------------------------------------------------------|

e|---------------------------------------------------------------------------|
B|-------12--14--15--14--14b16--12--10--14b16--12--10------------------------|
G|--p11------------------------------------------------11/12\11--------------|
D|---------------------------------------------------------------------------|
A|---------------------------------------------------------------------------|
E|---------------------------------------------------------------------------|

Hope this helped.

************************************

| h   Hammer-on
| p   Pull-off
| r   Release
| b   Bend
| br  Bend release
| /   Slide up
| \   Slide down
| ~   Vibrato
| N   Tremolo

************************************
Suggest correction
Give kudos to tab author, rate the tab!
1 2 3 4 5
comments
print report bad tab
guest
You may want to rate the tab now too:
select rating
Wanna post a correction for this tab? Suggest correction