Oops, an error
Loading. Please wait.

Why Wont They Talk To Me bass

version 2
version 2

Whole song

3,241 views 3 this week
1 commentread comment
1 2 3 4 5
x 7
add to favorites
×
Save as Personal and add changes to this tab that will be seen only by you. Learn more ›
×
You can save this tab as Personal to edit and correct it or add notes. All changes will be seen only by you. Learn more »
launch autoscroll
font size
0
reset
guitar tuner
edit
Autoscroll
slow
fast
+/-
esc
set tempo
stop
Author
Difficulty
G||---------------------------------------5555555-|
D||--55555555555555-444444444-55555555555---------|
A||-----------------------------------------------| 
E||-----------------------------------------------|

G||---------------------------------------5555555-|
D||--55555555555555-5h75h7-555555h755555h7--------|
A||-----------------------------------------------| 
E||-----------------------------------------------|

G||---------------------------------------55-|
D||--55555555555555-444444444-55555555555----|
A||------------------------------------------| 
E||------------------------------------------|

G||----------------------------------------|
D||--55555555555555-444444444-55555555555--|
A||----------------------------------------| X18
E||----------------------------------------|




BY YONATHANGARFIAS
@YONATHANGARFIAS

            
            
Suggest correction
Creating personal tab
Creating personal tab
You can edit any tab online and save it as your Personal.

You can edit, replace or remove any tab part or add personal notes – all changes will be seen only by you.

Personal tabs can be accessed anytime from any device, even offline.
Learn more »
comments
print report bad tab
1 comment total.
0 reply
1funnyguy99 127 Jul 01, 2014 01:21 PM

Needs to merge with ver. 1, especially:

3.13
G|------------------------------------------------------|
D|------------------------------7---7------7-----7------|
A|-----5---5------5---5---------------------------------|
E|0-3----------3----------5-5-----------5----5-5---5-5--|

G|-----------------------------------------------7-9--|
D|----------------------------7---7-----7------7------|
A|---5---5------5---5---------------------------------|
E|3----------3----------5-5---------5-5----5-5--------|

Some parts are right in both, some need work in both.

guest
You may want to rate the tab now too:
select rating
Wanna post a correction for this tab? Suggest correction