Oops, an error
Loading. Please wait.

Why Wont You Make Up Your Mind Tab

version 1
version 1

Whole song

21,612 views 33 this week
2 commentsread comments
1 2 3 4 5
worth learning
x 8
add to favorites
launch autoscroll
font size
0
reset
how to read this tab
guitar tuner
Tab Pro tools
  • play this tab
  • loop segment
  • change instrument
  • show fretboard
  • metronome
×
Best way to learn
"Why Wont You Make Up Your Mind"
Autoscroll
slow
fast
+/-
esc
set tempo
stop
Contributor
----------------------------------------------------------------------------
                             WHY WON'T YOU MAKE UP YOUR MIND? - Tame Impala
----------------------------------------------------------------------------
Tabbed by: Zooey Glass

Tuning: Standard

Intro

Guitar 1

w/ phaser and reverb

e|-5---6--------6--0---1--------1--------|
B|-5---6------6----0---1------1----------|
G|-5---7----7------0---2----2------------|
D|-7---8--8--------2---3--3--------------|
A|-7---8-----------2---3-----------------|
E|-5---6-----------0---1-----------------|

Guitar 2

w/distortion, reverb and some octave generator???
e|-------------------------------------------|
B|--------------------13/10------------------|
G|-9-10-7-10-10/14----------10-7/9-----------|
D|-------------------------------------------|
A|-------------------------------------------|
E|-------------------------------------------|


                           Am  A#
Why won't you make up your mind?
        Em   F
Give me a sign!
                           Am  A#
Why won't you make up your mind?
        Em   F
Give me a sign!

               Am  A#
Am I wasting my time?
               Em  F
Living in my head?

               Am   A#
You'll be sorry when I 
               Em  F
Make up mine instead.


Riff 2

w/lots of fuzz

e|----------------------------------------------|
B|----------------------------------------------|
G|----------------------------------------------|
D|-2-0---0-3-3/7-7---2-3-------7/5--------------|
A|-----1-------------------0-3------------------|
E|-----------------------1----------------------|

There are some bendings but I dont know how to tab them.

comments
print report bad tab
2 comments total.
-1 reply
G-Gilles wrote on June 2 2011, 11:37 am

a really good job

i think a second guitar does something like this on riff 2 though

|-----------------------------------------
|-----------------------------------------
|-----7-9-10-12b-12b-----7-9-10--12b14b12-
|-9/7-----------------9/7-----------------
|-----------------------------------------
|-----------------------------------------

0 reply
RikkyC wrote on March 17 2012, 09:03 am

Guitar 2 in the intro should be:
e|-------------------------------------------|
B|---------------------13/10-----------------|
G|-5-9-7-10-10/14------------10-7/9----------|
D|-------------------------------------------|
A|-------------------------------------------|
E|-------------------------------------------|

And possibly the second riff as:
e|----------------------------------------------|
B|----------------------------------------------|
G|----------------------------------------------|
D|-2-0---0-3-5/7-7---2-3-------7/5--------------|
A|-----1-------------------0-3------------------|
E|-----------------------1----------------------|

I want to post or [tab]
guest
You may want to rate the tab now too:
select rating
Please do not post tabs as comments. Select "correction" instead!