Oops, an error
Loading. Please wait.

Why Wont You Make Up Your Mind Tab

version 2
version 2

Whole song

2,082 views 6 this week
no commentswrite comment
1 2 3 4 5
2 more votes to show rating
add to favorites
launch autoscroll
font size
0
reset
how to read this tab
guitar tuner
Autoscroll
slow
fast
+/-
esc
set tempo
stop
Help us to improve Ultimate-Guitar.com Take our survey!
×
Author
Tuning
D G C F A D
Tame Impala - Why Won't You Make Up Your Mind?

Tabbed By Richard
----------------------------------------------------------------------------

  Intro/Verse (Guitar 1)
d:-7---8-------2---3-------7---8-(8)----2---3-(3)----|  
a:-7---8-------2---3-------7---8----(8)-2---3----(3)-|  This is played 
f:-8---9--(9)--3---4--(5)--8---9--------3---4--------|  throughout except
C:-9---10------4---5-------9---10-------4---5--------|  when Riff (Guitar 1)
G:-9---10------4---5-------9---10-------4---5--------|  is played.
D:-7---8-------2---3-------7---8--------2---3--------|

  Verse (Guitar 2) (00:46-01:13) Riff 1 (01:14)
d:---------7------10/7----------|-------------------------|
a:---7---7-------------7--------|-7---7---7---(7)----7/5)-|
f:-7---9-----------------7-9----|---9---9---9----(9)------|
C:------------------------------|-------------------------|
G:------------------------------|-------------------------|
D:------------------------------|-------------------------|


  - Verse (Guitar 2) (01:16-01:23)


  (01:24)
d:---------7------10/7-------------------|
a:---7---7-------------7---7/5-5/3-3/2-2-|
f:-7---9-----------------7---------------|
C:---------------------------------------|
G:---------------------------------------|
D:---------------------------------------|

  Riff (Guitar 1) (01:31-02:00)
d:--------------------------------------|
a:--------------------------------------|
f:-------------2/4-4---------------4/-2-|
C:-4^--2---2-4---------4^--5------------|  X4
G:-------2---------------------2-5------|
D:---------------------------3----------|

  Riff (Guitar 2) (01:46-02:00)
d:--------------------------------------------------|
a:--------------------------------------------------|
f:--------9-11-12-14/16-16-------------------16/-14-|       Not 100%
C:-11^--9--------------------11^--12----9-12--------|  X2   about this
G:-----------------------------------10-------------|       part...
D:--------------------------------------------------|


  - Verse (Guitar 1) (02:01-02:28)  X4

  - Verse (Guitar 2) (02:01-02:16) (Played twice ending with 'Riff 1').


  Outro (02:29-03:19)
d:---------------------------------7-10/12-12/10-10/7-----------|
a:-7---7---7---(7)----7/5----7---7--------------------7-----7---|
f:---9---9---9----(9)------7---9------------------------7-9---9-|
C:--------------------------------------------------------------|
G:--------------------------------------------------------------|
D:--------------------------------------------------------------|

d:---------7---9/10-/7------------------------------7-9/10-10/12-12-|
a:---7---7-------------7-----7-7/10-10/12-----7---7-----------------|
f:-7---9-----------------7-9----------------7---9-------------------|
C:------------------------------------------------------------------|
G:------------------------------------------------------------------|
D:------------------------------------------------------------------|

d:----------------------------7------10/7------------------7-|
a:-7--7-7/5-5-5/3-3-----7---7-------------7----------7---7---|
f:--------------------7---9-----------------7-9----7---9-----|
C:-----------------------------------------------------------|
G:-----------------------------------------------------------|
D:-----------------------------------------------------------|

d:-10/7------------------7-7/9-10/7-------|
a:------7----------7---7------------7-----|
f:--------7-9----7---9----------------7-9-|  
C:----------------------------------------|  With Riff (Guitar 1) X6
G:----------------------------------------|
D:----------------------------------------|

   Lyrics:

Why won't you make up 
 your mind?
Give me a sign

Why won't you make up 
 your mind?
Give me a sign

Am I wasting my time?
 Living in my head?

You'll be sorry when I,
 make up mine instead
Suggest correction
Give kudos to tab author, rate the tab!
1 2 3 4 5
comments
print report bad tab
guest
You may want to rate the tab now too:
select rating
Wanna post a correction for this tab? Suggest correction