Oops, an error
Loading. Please wait.

Officially Missing You Tab

version 1
version 1

Intro

  • Compared to other versions, this one is simpler and easier for others to use.

Interactive

229 views 12 this week
no commentswrite comment
1 2 3 4 5
3 more votes to show rating
add to favorites
launch autoscroll
font size
0
reset
how to read this tab
guitar tuner
×
Best way to learn
"Officially Missing You"
Autoscroll
slow
fast
+/-
esc
set tempo
stop
Author
Difficulty
About this tab version
Compared to other versions, this one is simpler and easier for others to use. Was this info helpful? Yes No
Tamia - Officially Missing You

Tabbed by Daniel Hwang

[Intro]

e|-------------------------|-------------------------|--------3----3----3----|
B|--------3----3----3------|-------2----2----4--4----|--------3----3----3----|
G|--------4----4----4------|-------2----2----4--4----|-----------------------|
D|--------4----4----4------|-------2----2------------|-----------------------|
A|-------------------------|-------------------------|-----------------------|
E|---3---------------------|---2---------------------|---0-------------------|


e|---1----------0----------|--------0----0----0------|--------2----2h3-------|
B|------1-------0----------|--------0----0----0------|--------2--------------|
G|---------2----0----------|--------0----0----0------|--------2--------------|
D|---0---------------------|-------------------------|-----------------------|
A|-------------------------|---3---------------------|---2-------------------|
E|--------------3----------|-------------------------|-----------------------|

e|-------1----1----1-------|--------3--3-------------|
B|-------3----3----3-------|--------3--3-------------|
G|-------------------------|-------------------------| 
D|--0----------------------|---0---------------------|
A|-------------------------|-------------------------|
E|-------------------------|-------------------------|



************************************
| h   Hammer-on
| p   Pull-off
************************************
Suggest correction
Give kudos to tab author, rate the tab!
1 2 3 4 5
comments
print report bad tab
guest
You may want to rate the tab now too:
select rating
Wanna post a correction for this tab? Suggest correction