Oops, an error
Loading. Please wait.

Beautiful Tab

version 1
version 1

Whole song

130 views 3 this week
no commentswrite comment
1 2 3 4 5
3 more votes to show rating
add to favorites
launch autoscroll
font size
0
reset
how to read this tab
guitar tuner
Autoscroll
slow
fast
+/-
esc
set tempo
stop
Help us to improve Ultimate-Guitar.com Take our survey!
×
SOLO COMPLETO:

E----------------------------------------------------------7-7---10-8-7-8
A----------------------------------8-9-8--8-8-------------8--------------
D-----8-12-10-10-10-8-7-8------8h10----------10-9-10--8-10---------------
G-8h10-------------------------------------------------------------------
B------------------------------------------------------------------------
e------------------------------------------------------------------------


E-----------------------------------------------
A-9-9-9-9-8--9-9-9-9-8--9-9-9-9-8--11-----------
D----------10---------10---------10-------------
G-----------------------------------------------
B-----------------------------------------------
Suggest correction
Give kudos to tab author, rate the tab!
1 2 3 4 5
comments
print report bad tab
guest
You may want to rate the tab now too:
select rating
Wanna post a correction for this tab? Suggest correction