Oops, an error
Loading. Please wait.

El Asunto Tab

version 1
version 1

Whole song

53 views 3 this week
no commentswrite comment
1 2 3 4 5
3 more votes to show rating
add to favorites
launch autoscroll
font size
0
reset
how to read this tab
guitar tuner
×
Best way to learn
"El Asunto"
Autoscroll
slow
fast
+/-
esc
set tempo
stop
Hola amigos, aquí les traigo una muy buena cancion de Tan Bionica, esta versión
se oye muy parecida a la original, la saque a oído, con todo y la tablatura
incluida, cualquier duda o sugerencia, les dejo mi correo


Forma de arpegiar: toda la cancion se arpegia igual, les dejare un ejemplo
con la nota C, solo irán cambiando de nota según vaya avanzando la canción
las cuerdas con "x" en la tablatura del intro no se tocan.
El G con Cejilla se hace como un F pero en el tercer traste.

1|---------------
2|--------1------  Ejemplo de como se arpegia esta canción
3|-----------0---  se toca la cuerda 5, 4, 2, 3, 4 en ese orden
4|-----2--------2
5|--3------------
6|---------------

Intro:

1|------------------
2|--------1---------
3|-----------0------ x6     ((Continua lo de abajo))
4|-----2--------2---
5|--3---------------
6|------------------


se tocan seguidas
    G Em Am            F              G(cejilla)    C(se toca dos veces)
1|--x--x--x-------------------------------------------------------
2|--3--0--1------1----------1--------------3-------------1--------
3|--0--0--2----2---2-----------2-------------4--------------0-----
4|--0--2--2--2-----------3--------3------5------5------2--------2-
5|--x--2--0------------3--------------5-------------3-------------
6|--3--x--x-------------------------------------------------------

                       C             C
1|------------------------------------------------
2|--------------------------1--------------1------
3|-----------------------------0-------------0----
4|-----7---5--------------2-------2-----2-------2-
5|---8---------7---5---3-------------3------------
6|------------------------------------------------

Las notas se arpegian como en el ejemplo, toca la canción

C
Ya bajé la guardia hace algún tiempo
        F                    Am G
No me enojo ni me río porque sí
C
Canto mi bolero desangrado
F                           Am         G
Pinto el cielo en acuarelas azul sobre gris

C/A        C/B       C
Y eran calesitas desoladas
C/A         C/B      C
No me dejen solo por ahí
C/A          C/B          C
Ya le rendí cuentas al destino
      F      G            C
No me sigas, don't follow me

F           C     F            C
Todas las mañanas llora porque sí
F               C      G      Em      Am
No pretendo en sueños, yo sin vos sin mí
       F      G          C
Fue la última vez que la vi

C
Yo vivo la vida de la ausencia
F                      Am          G
Veo con los ojos del olvido la verdad
C
Cada lunes es un día muerto
F             Am    G
Y el espejo,  fatalidad

C/A          C/B        C
Ponganme anestesia sin apuro
C/A                C/B        C
Que hoy me está costando sonreír
C/A         C/B        C
Tengo más pasado que futuro
       F    G       C
Y unos años sin dormir

F            C      F               C
Se curó de espanto, se acercó hasta mí
F             C     G    Em    Am
y escondió consejos para ser feliz
       F      G          C
Fue la última vez que la vi

F            C    F            C
Todas las mañanas llora porque sí
F                C     G     Em      Am
No pretendo en sueños, yo sin vos sin mí
       F      G          C
Fue la última vez que la vi
       F      G          C
Fue la última vez que la vi
Suggest correction
Give kudos to tab author, rate the tab!
1 2 3 4 5
comments
print report bad tab
guest
You may want to rate the tab now too:
select rating
Wanna post a correction for this tab? Suggest correction