Oops, an error
Loading. Please wait.

El Asunto tab

version 2
version 2

Whole song

48 views 1 this week
no commentswrite comment
1 2 3 4 5
3 more votes to show rating
add to favorites
×
Save as Personal and add changes to this tab that will be seen only by you. Learn more ›
×
You can save this tab as Personal to edit and correct it or add notes. All changes will be seen only by you. Learn more »
launch autoscroll
font size
0
reset
how to read this tab
guitar tuner
edit
Autoscroll
slow
fast
+/-
esc
set tempo
stop
Lleva capotraste en el 5° traste, esto me salio
es puro arpegio y bastante facil

Intro:
   FA        DO       FA        DO       FA        DO
1--------------------------------------------------------a
2--------------------------------------------------------e
3-----0--------0--------0---------0---------0-------0----C
4---2---2--------2----2---2---------2-----2---2-------2--G
5-3----------2------3-----------2-------3---------2------D
6----------3------------------3-----------------3--------A

   MI     LAm   FA  SOL   DO
1-------------------------------------------a
2-------------------------------------------e
3-----------------------------0-------------C
4-------------------------------2---------0-G
5-0/2-2-0---0/2-3-2-0-------2-------2-0/2---D
6---------3-----------3-2-3-------3---------A

  FA  SOL   DO
1-------------------------------
2-------------------------------
3---------------0-------0-------
4---2-0-----------2-------2-----
5-3-----2/0---2-------2---------
6-----------3-------3-----------

1° Parte De los versos
          DO                                  FA
1------------------------------------I-----------------I
2------------------------------------I-----------------I
3-----0-------0--------0-------0-----I-----0-------0---I
4-------2-------2--------2-------2---I---2---2---2---2-I
5---2-------2-------2--------2-------I-3-------3-------I
6-3-------3-------3--------3---------I-----------------I

   LA        SOL
1---------I---------I
2---------I---------I
3-----0---I-----2---I
4---2---2-I---0---0-I
5-2-------I-0-------I
6---------I---------I

 DO
Ya baje la guardia hace algun tiempo
       FA                    LAm   SOL
no me enojo ni me rio porque si
 DO
Canto mi bolero desangrado
FA
pinto el cielo en alcuarelas

   LA        SOL
1---------I---------I
2---------I-----0---I
3-----0---I-------2-I
4---2---2-I---0-----I
5-2-------I-0-------I
6---------I---------I
azul sobre gris


2° Parte de los versos
    LA        SOL          DO
1---------I----------I-----------------I
2---------I----------I-----------------I
3-----0---I-----2----I-----0-------0---I x3
4---2---2-I---0---0--I-------2-------2-I
5-2-------I-0--------I---2-------2-----I
6---------I----------I-3-------3-------I

LAm        SOL         DO
y eran calesitas desoladas
no me dejen solo por ahi
ya le rendi cuentas al destino
no me...

  FA      SOL       DO
1-----------------------------------
2-----------------------------------
3-----------------------0-------0---
4-------------------------2-------2-
5-0/2-3-2-0-----------2-------2-----
6---------------3-2-3-------3-------
sigas don't follow me


El estribillo es igual a la intro:

FA            DO   FA           DO
todas las mañanas  llora porque si
FA             DO
no pretendo en sueños
MIm            LAm
yo sin vos sin mi
       FA     SOL        DO
fue la ultima vez que la vi


Repite la 1° parte de los versos

DO
yo vivo la vida de la ausencia
FA                     LAm        SOL
veo con los ojos del olvido la verdad
DO
cada lunes es un dia muerto
FA          LAm   SOL
y el espejo fatalidad


3° Parte de los versos
 LAm         SOL       DO
1-----3--I-----3---I----3---
2-------3I-------3-I------3-
3--------I---2-----I--------
4---2----I-0-------I--------
5-2------I---------I--2-----
6--------I---------I3-------
LAm          SOL          DO
ponganme anestesia sin apuro
que hoy me esta costando sonreir
tengo mas pasado que futuro  y unos....

  FA  SOL   DO
1---------------3-------3---
2-----------------3-------3-
3---------------------------
4---2-0---------------------
5-3-----2/0---2-------2-----
6-----------3-------3-------
 años sin dormir

4° parte de los versos
    FA        DO
1---------I--------I
2-----3---I----3---I
3-------0-I------0-I  x3
4---2-----I--------I
5-3-------I--2-----I
6---------I3-------I
FA              DO
se curo de espanto
se acerco hasta mi
y escondio consejos

   MI     LAm   FA  SOL   DO
1-------------------------------------------a
2-----------------------------0-------0-----e
3-------------------------------0-------0---C
4-------------------------------------------G
5-0/2-2-0---0/2-3-2-0-------2-------2-------D
6---------3-----------3-2-3-------3---------A

MIm        LAm
para ser feliz
       FA     SOL        DO
fue la ultima vez que la vi


este es el estribillo final
  FA      DO      FA      DO
1-----3-------3-------3-------3---
2-------3-------3-------3-------3-
3---------------------------------
4---2---------------2-------------
5-3---------2-----3---------2-----
6---------3---------------3-------
 FA           DO  FA           DO
todas las mañanas llora porque si
FA             DO
no pretendo en sueños

  MIm    LAm    FA  SOL   DO
1-0/2-2-2-0-------------------3-------3---
2-0/2-2-2-0---------------------3-------3-
3-----------------------------------------
4-----------------------------------------
5-----------0-2-3-2-0-------2-------2-----
6---------------------3-2-3-------3-------

  FA  SOL   DO
1---------------------
2---------------------
3---------------------
4-----0---2-0---------
5-0-2---3------2/0----
6------------------3--
MIm            LAm
yo sin vos sin mi
       FA     SOL        DO
fue la ultima vez que la vi
fue la ultima vez que la vi

cualquier duda o arreglo escribanme a mi facebook

            
            
Suggest correction
Creating personal tab
Creating personal tab
You can edit any tab online and save it as your Personal.

You can edit, replace or remove any tab part or add personal notes – all changes will be seen only by you.

Personal tabs can be accessed anytime from any device, even offline.
Learn more »
Give kudos to tab author, rate the tab!
1 2 3 4 5
comments
print report bad tab
guest
Wanna post a correction for this tab? Suggest correction