Oops, an error
Loading. Please wait.

El Color Del Ayer Tab

85 views 1 this week
no commentswrite comment
1 2 3 4 5
3 more votes to show rating
add to favorites
launch autoscroll
font size
0
reset
how to read this tab
guitar tuner
×
Best way to learn
"El Color Del Ayer"
Autoscroll
slow
fast
+/-
esc
set tempo
stop
este es el solo del tema , lo saque de oido es muy facil.


E|--------------------------------|
A|--------------------------------|
D|--------------------------------|
G|----------------------9-7-6-7-6-|
B|-10-10-10-10-10-10-10-----------|
e|--------------------------------|

E|--------------------------------|
A|--------------------------------|
D|--------------------------------|
G|----------------------9-7-6-7-6-|
B|-10-10-10-10-10-10-10-----------|
e|--------------------------------|

E|-----------------------------------|-----------------------------------|
A|-----------------------------------|-----------------------------------|
D|-----------------------------------|-----------------------------------|
G|-----------------------------------|-----------------------------------|
B|-10-10-10-10-10-10-10-12-10-9-10---|-9-10---------10-9---------10-9-10-|
e|-----------------------------------|------9-10-9-7-----9-10-9-7--------|

Espero que les sirva,
Cualquier correcion o duda. Face : joel vargas
Suggest correction
Give kudos to tab author, rate the tab!
1 2 3 4 5
comments
print report bad tab
guest
You may want to rate the tab now too:
select rating
Wanna post a correction for this tab? Suggest correction