Oops, an error
Loading. Please wait.

La Ensalada Tab

4 views 1 this week
no commentswrite comment
1 2 3 4 5
3 more votes to show rating
add to favorites
launch autoscroll
font size
0
reset
how to read this tab
guitar tuner
×
Best way to learn
"La Ensalada"
Autoscroll
slow
fast
+/-
esc
set tempo
stop
E---------------------------------------------||
B-----0-1-1----1-0----------------------------||
G-0-2--------------2-0-------0-2-4-4---2-4-0--||
D----------------------4---4------------------||
A---------------------------------------------||
E---------------------------------------------||

E---------------------------------------------||
B-----0-1-1----1-0----------------------------||
G-0-2--------------2-0-------0-2-0------------||
D----------------------4---4------------------||
A---------------------------------------------||
E---------------------------------------------||


Es el intro nomás de la canción.
Suggest correction
Give kudos to tab author, rate the tab!
1 2 3 4 5
comments
print report bad tab
guest
You may want to rate the tab now too:
select rating
Wanna post a correction for this tab? Suggest correction