Oops, an error
Loading. Please wait.

Loca Chords

256 views 3 this week
no commentswrite comment
1 2 3 4 5
x 3
add to favorites
×
Save as Personal and add changes to this tab that will be seen only by you. Learn more ›
×
You can save this tab as Personal to edit and correct it or add notes. All changes will be seen only by you. Learn more »
save as personal
new!
launch autoscroll
font size
0
reset
transpose
0
reset
display chords
guitar tuner
Autoscroll
slow
fast
+/-
esc
set tempo
stop
Strumming
There is no strumming pattern for this song yet. and get +5 IQ
1)
G    Bm              Em
Loca vos no entendés nada de vivir.
Am         C              D
Se fueron con septiembre tus ganas de mí.
G    Bm              Em
Y una forma errante de permanecer
Am         C              D
llenó de noches todo nuestro amanecer.

C-D-Em-D-C-D

G    Bm              Em
Loca vos no entendés nada del amor.
Am         C              D
Yo no puedo cantar Blackbird como Paul.
G    Bm              Em
Loca, tengo ganas locas de volver
Am         C              D
como flores que volvieron a crecer.


G           D          Em
Loca, me gustás así de loca
                  C
inestable y caprichosa.
                     D
Mucho mejores que el vino
                    G
son los besos de tu boca.

G           D          Em
Y tal vez es porque vivo
                   C
de la forma en que mal vivo
                   D
que te digo lo que digo,
                     G
que me encuentro tan perdido.

Solo:

e|----------------------------------------------------------------
B|----------------------------------------------------------------
G|----4~---4-2-4----2-0------------5-5-5-5-5-7-5-4-2----0---------
D|------------------------0h4-5---------------------------4-------
A|----------------------------------------------------------------
E|----------------------------------------------------------------

e|-------------------------3~---8-7-8-7-8-7-----------10~---------
B|---------------4~---5~--------------------10-8-7~---------------
G|--------2-4~----------------------------------------------------
D|----0-4---------------------------------------------------------
A|----------------------------------------------------------------
E|----------------------------------------------------------------

G     Bm              Em
Loca, sólo lo que escribo es lo que soy
Am         C                D
no tengo mucha energía para hoy.
G    Bm              Em
Loca, tengo ganas locas de volver
Am         C              D
como flores que volvieron a crecer.


G         D       Em
Me gustás así de loca.
G         D       Em
Me gustás así de loca.
                  C
inestable y caprichosa
                     D
Mucho mejores que el vino
                    G
son los besos de tu boca.

G           D          Em
Y tal vez es porque vivo
                   C
de la forma en que mal vivo
                   D
que te digo lo que digo,
                     G
que me encuentro tan perdido.

G           D        Em
La nostalgia es un espejo
                C
que duplica lo vivido
                   D
rescatando nuestro tiempo
                   G
de las garras del olvido.

G           D        Em
Y es que no tengo más nadie
                   C
que pelear más que conmigo
                       D
porque eternos como el tiempo
                      G
son las noches y el vacío.

G           D        Em
Porque nado hasta encontrarte
                C
en este salvaje río.
                    D
Porque no me queda nada
                     G
que perder que lo vivído.

G     Bm              Em
Loca, vos no entendés nada de vivir. (x4)
Suggest correction
Give kudos to tab author, rate the tab!
1 2 3 4 5
comments
print report bad tab
guest
Wanna post a correction for this tab? Suggest correction