Oops, an error
Loading. Please wait.

Loca Tab

version 1
version 1

Whole song

174 views 1 this week
no commentswrite comment
1 2 3 4 5
2 more votes to show rating
add to favorites
×
Save as Personal and add changes to this tab that will be seen only by you. Learn more ›
×
You can save this tab as Personal to edit and correct it or add notes. All changes will be seen only by you. Learn more »
save as personal
new!
launch autoscroll
font size
0
reset
how to read this tab
guitar tuner
Autoscroll
slow
fast
+/-
esc
set tempo
stop
Hola gente, les traigo un hermoso tema de TAN BIÓNICA, LOCA, que
es muy lindo y fácil de tocar; al puente que hace entre el 1° y el
2° verso y al solo que hace el guitarrista lo saqué a oído ya que
no encontraba por ninguna parte la tablatura; el solo creo que
está igual que la canción, en cambio al puente le hice una
variante que queda bastante bien si respetan los tiempos, acá va
LA canción!!


1° Verso:

      SOL         SIm         MIm

e|----------3-----------2-----------0-----------0------------
B|----------3-----------4-----------0-----------0------------|
G|----------4-----4--4--4--4--------0-----------0------------|
D|----5--5--5--5--4--4--4--4--2--2--2--2--2--2--2--2---------|
A|----5--5--5--5--2--2--2--2--2--2--2--2--2--2--2--2---------|
E|----3--3--3--3--------------0--0--0--0--0--0--0--0---------|
                                                             |
      LAm         DO          RE                             | X 2
                                                             |
e|----------0-----------3-----------5-----------5------------|
B|----------1-----------5-----------7-----------7------------|
G|----2--2--2--2--5--5--5--5--7--7--7--7--7--7--7--7---------|
D|----2--2--2--2--5--5--5--5--7--7--7--7--7--7--7--7---------|
A|----0--0--0--0--3--3--3--3--5--5--5--5--5--5--5--5---------|
E|-----------------------------------------------------------/


Puente del 1° al 2° verso.

      DO            RE            MI

e|----------------------------------------------------------------
B|----------------------------------------------------------------
G|----------------------------------------------------------------
D|-------4--5--4-------7--5--7-------7--9--7----9--7--5-----------
A|----3-------------5-------------7-------------------------------
E|----------------------------------------------------------------

      DO            RE                       SOL

e|----------------------------------------------------------------
B|----------------------------------------------------------------
G|----------------------------------------------------------------
D|-------5--4--5-------5--7--5---------------5~-------------------
A|----3-------------5---------------------------------------------
E|----------------------------------------------------------------


2° Verso:

Igual que el 1° verso.


1° Estribillo:

Es con acordes normales: Estos son los acordes:

SOL x 1; RE x 1; MIm x 2; DO x 2; RE x 2. (Todo esto x 2).


Solo:

e|----------------------------------------------------------------
B|----------------------------------------------------------------
G|----4~---4-2-4----2-0------------5-5-5-5-5-7-5-4-2----0---------
D|------------------------0h4-5---------------------------4-------
A|----------------------------------------------------------------
E|----------------------------------------------------------------

e|-------------------------3~---8-7-8-7-8-7-----------10~---------
B|---------------4~---5~--------------------10-8-7~---------------
G|--------2-4~----------------------------------------------------
D|----0-4---------------------------------------------------------
A|----------------------------------------------------------------
E|----------------------------------------------------------------


3° Verso:

Igual que el 1° y el 2° verso.


2° Estribillo:

Igual al 1° estribillo pero en vez de todo x 2 es todo x 5.


Final:

Esto es la parte que canta ?Loca, vos no entedés nada de vivir,
uhuhuhuuuh!! aaaaah!!?

Es igual al 1°, 2° y 3° verso pero con acordes naturales (sin quintas)


Letra:

1° Verso:
Loca vos no entendés nada de vivir.
Se fueron con septiembre tus ganas de mí.
Y una forma errante de permanecer
llenó de noches todo nuestro amanecer.

Puente del 1° al 2° verso.

2° Verso:
Loca vos no entendés nada del amor.
Yo no puedo cantar Blackbird como Paul.
Loca, tengo ganas locas de volver
como flores que volvieron a crecer.

1° Estribillo:
Loca, me gustás así de loca
inestable y caprichosa.
Mucho mejores que el vino
son los besos de tu boca.

Y tal vez es porque vivo
de la forma en que mal vivo
que te digo lo que digo,
que me encuentro tan perdido.

2° Verso:
Loca, sólo lo que escribo es lo que soy
y no tengo mucha energía para hoy.
Loca, tengo ganas locas de volver
como flores que volvieron a crecer.

2° Estribillo:
Me gustás así de loca,
me gustás así de loca.
Mucho mejores que el vino
son los besos de tu boca.

Y tal vez es porque vivo
de la forma en que mal vivo
que te digo lo que digo,
que me encuentro tan perdido.

La nostalgia es un espejo
que duplica lo vivido
rescatando nuestro tiempo
de las garras del olvido.

Y es que no tengo más nadie
que pelear más que conmigo
porque eternos como el tiempo
son las noches y el vacío.

Porque nado hasta encontrarte
en este salvaje río.
Porque no me queda nada
que perder que lo vivido.

Final:
Loca, vos no entendés nada de vivir, uhuhuhuuuh!! aaaaah!!
Loca, vos no entendés nada de vivir, uhuhuhuuuh!! aaaaah!!
Loca, vos no entendes nada de vivir, uhuhuhuuuh!! aaaaah!!
Loca, vos no entendes nada de vivir, uhuhuhuuuh!! aaaaah!!


Cualquier duda, corrección, etc. manden un mail a
manusabarros@
Suggest correction
Give kudos to tab author, rate the tab!
1 2 3 4 5
comments
print report bad tab
guest
Wanna post a correction for this tab? Suggest correction