Oops, an error
Loading. Please wait.

Loca Tab

version 2
version 2

Whole song

28 views 1 this week
no commentswrite comment
1 2 3 4 5
3 more votes to show rating
add to favorites
launch autoscroll
font size
0
reset
how to read this tab
guitar tuner
Autoscroll
slow
fast
+/-
esc
set tempo
stop
Help us to improve Ultimate-Guitar.com Take our survey!
×
que tal gente de la cuerda esta es mi primera colaboracion je

cualquier cosa avisenme que les parece!

Saludos

e|----------------------------------------------------------------------
B|----------------------------------------------------------------------
G|---------------------------------------5-5-5-5-5-7-5-4-2----0---------
D|--9-9-9-9-7--10-9-7-------------------------------------------4-------
A|---------------------10--------7--10----------------------------------
E|---------------------------10-----------------------------------------

e|-------------------------3~---8-7-8-7-8-7-----------10~---------
B|---------------4~---5~--------------------10-8-7~---------------
G|--------2-4~----------------------------------------------------
D|----0-4---------------------------------------------------------
A|----------------------------------------------------------------
E|----------------------------------------------------------------

por las dudas este es mi correo chiito53452@

o 
Suggest correction
Give kudos to tab author, rate the tab!
1 2 3 4 5
comments
print report bad tab
guest
You may want to rate the tab now too:
select rating
Wanna post a correction for this tab? Suggest correction