Oops, an error
Loading. Please wait.

Mis Amigos De Siempre Tab

7 views 1 this week
no commentswrite comment
1 2 3 4 5
3 more votes to show rating
add to favorites
launch autoscroll
font size
0
reset
how to read this tab
guitar tuner
Autoscroll
slow
fast
+/-
esc
set tempo
stop
Help us to improve Ultimate-Guitar.com Take our survey!
×
INTRO:

   C#m
1------------------------------------------------------------------------------
2------------------------------------------------------------------------------
3------------------------------------------------------------------------------
4------------------------------------------------------------------------------
5-------0---2---4------0---2---4-----0---2---4-----0---2---4-------------------
6---2--------------2-------------2-------------2-------------------------------

   F#m
1------------------------------------------------------------------------------
2------------------------------------------------------------------------------
3------------------------------------------------------------------------------
4------------------------------------------------------------------------------
5---2---5---5---4---2---5---5---4---2---5---5---4---2---5---5---4---2---0------
6------------------------------------------------------------------------------

   C#m
1------------------------------------------------------------------------------
2------------------------------------------------------------------------------
3------------------------------------------------------------------------------
4------------------------------------------------------------------------------
5-------0---2---4------0---2---4-----0---2---4-----0---2---4-------------------
6---2--------------2-------------2-------------2-------------------------------

   F#m
1------------------------------------------------------------------------------
2------------------------------------------------------------------------------
3------------------------------------------------------------------------------
4------------------------------------------------------------------------------
5---2---5---5---4---2---5---5---4---2---5---5---4---2---5---5---4---2---0------
6----------------------------------------------------------------------------2-


Y ASÍ SUCESIVAMENTE HASTA LLEGAR AL ESTRIBILLO.

ESPERO QUE LES GUSTE Y LES SIRVA! SALUDOS!
Suggest correction
Give kudos to tab author, rate the tab!
1 2 3 4 5
comments
print report bad tab
guest
You may want to rate the tab now too:
select rating
Wanna post a correction for this tab? Suggest correction