Oops, an error
Loading. Please wait.

Pastillitas Del Olvido Tab

127 views 1 this week
no commentswrite comment
1 2 3 4 5
3 more votes to show rating
add to favorites
launch autoscroll
font size
0
reset
how to read this tab
guitar tuner
×
Best way to learn
"Pastillitas Del Olvido"
Autoscroll
slow
fast
+/-
esc
set tempo
stop
Gente aca les dejo la introducción de esta maravillosa canción,
ya que estuve mirando pero todas las introducciones son incorrectas,
Despues de estar casi media hora, aca la tienen a la perfección:

ACORDES DE INTRO:

Em D G C G D Em D

Arpegio utilizado en la introducción y durante las estrofas:

       Em            D           G               C          G
e-------3------------5-----------7---------------8-----------7---------
B---------0--------3---3-----------0---------------8-----------0-------
G----0------0----2-------2-----0-----0---------9-----9-----0-----0-----
D--2-------------0-------------0------------10-------------0-----------
A--2----------------------------------------10-------------------------
E--0-------------------------3--------------8------------3-------------

    D             Em           D                      Em
e-----5------------3------------2--2*-|         e-------3-----
B---3---3------------0----------3--3*-|         B---------0---
G-2-------2-----0------0--------2--2*-|         G----0------0-  x2
D-0-----------------------------0--0*-|         D--2----------
A-------------2-----------------------|         A--2----------
E-------------0-----------------------|         E--0----------


Em                     D             G
En la esquina de mi barrio hay una tienda que
   C           G       D     Em     D
vende unas pastillas para olvidar.
 Em            D              G        C
Los vecinos aseveran que su efecto prolifera pero
 G     D              Em    D
yo no las quise ni probar.
Am                            D
Pastillitas del olvido, tengan el recuerdo vivo de
  G            D        Em
la noche que la vi bailar.
   Am                  D
Se movía como loca, inestable y caprichosa,
     G        D     Em        D       C    D
y era triste como mi ciudad, como mi ciudad..

     G                           B7         Em
2) Y yo, que te di todas mis noches a vos, sin
                 C
lamentos ni reproches.
  G                         A
Te di, en las noches y los días, mis mejores
  C                          D
melodías en  las olas más tremendas de mi vida.
  G              B7                     Em
Yo te espero todavía, yo creo que el olvido es una
    C
fantasía.
  G                     A
Y así, destinado a padecerte sigo loco como
  C                           D
siempre,  inventando lo que sea para verte.

1)En un rincón de mi memoria, sobran noches de tristeza,
poca gloria, y soledad.
Y en el hueco de los años más dorados caben tus ojos
prestados y un adiós para olvidar.
Pastillitas del olvido, tengan el recuerdo vivo
de la noche que la vi bailar.
Se movía como loca, inestable y caprichosa, y era
triste como mi cudad, como mi ciudad..

2)Y yo, que te di todas mis noches a vos,
sin lamentos ni  reproches.
Te di, en las noches y los días,
mis mejores melodías en las olas más tremendas de mi vida.
Yo te espero todavía, yo creo que el olvido es una fantasía.
Y así, destinado a padecerte sigo loco como siempre,
inventando lo que sea para verte.

2) Y yo, que te di todas mis noches a vos,
sin lamentos ni reproches.
Bailá tu milonga preferida,
que está oscuro todavía, que amanece y se nos acaba la vida.
Yo te espero todavía, yo creo que el olvido es una fantasía.
Y así, destinado a padecerte sigo loco como siempre,
inventando lo que sea para verte.

Cualquier duda comunicarme al facebook:
Suggest correction
Give kudos to tab author, rate the tab!
1 2 3 4 5
comments
print report bad tab
guest
You may want to rate the tab now too:
select rating
Wanna post a correction for this tab? Suggest correction