Oops, an error
Loading. Please wait.

Control Me tab

by Tancred
413 views 9 this week
no commentswrite comment
1 2 3 4 5
3 more votes to show rating
add to favorites
×
Save as Personal and add changes to this tab that will be seen only by you. Learn more ›
×
You can save this tab as Personal to edit and correct it or add notes. All changes will be seen only by you. Learn more »
launch autoscroll
font size
0
reset
how to read this tab
guitar tuner
edit
Autoscroll
slow
fast
+/-
esc
set tempo
stop
Song: "Control Me"
Artist: Tancred
Album: Out Of The Garden (2016)
Tabbed By: Natalie S.

** This song is fairly straightforward and repetitive, 
so I chose to write it condensed rather than repeat the same sections **

[Verse]

e|--------------------|--------------------|
B|--------------------|--------------------|
G|--------------------|--------------------|
D|--7-----------------|-----------------7--|
A|--5-----4---4-----2-|-2-----7---7-----5--|
E|--------2---2-----0-|-0-----5---5--------|


[Pre-Chorus]

 "You control me..."
e|--------------------|--------------------|
B|--------------------|--------------------|
G|--------------------|--------------------|
D|--7-----4---4-----7-|-7-----4---4-----7--|
A|--5-----2---2-----5-|-5-----2---2-----5--|
E|--------------------|--------------------|


[Chorus] 

*the rhythm is kinda weird, but here are the chords*
e|-----------------------|
B|-----------------------|
G|-----------------------|
D|--------------3-----4--|
A|--4-----1-----4-----5--|
E|--5-----2--------------|


[Chorus Lead] 

(second guitar)
e|----------------------------------------|
B|----------------------------6--------7--|
G|-----6--------3-------3--6--------7-----|
D|--7-----7--4-------4-----------7--------|
A|----------------------------------------|
E|----------------------------------------|


[Bridge]

e|-----------------|
B|-----------------|
G|-----------------|
D|-----------------|
A|--4----4b5----4--|
E|-----------------|


Song Order:

Intro (play verse) X2
Verse X4
Pre-Chorus X4
Chorus X6
Verse X4
Pre-Chorus X4
Chorus X8 (last two are loosely palm muted)
Bridge X4
Pre-Chorus X1 (just single chords)
Chorus X6
Bridge X8



************************************

| b  Bend

************************************

            
            
Suggest correction
Creating personal tab
Creating personal tab
You can edit any tab online and save it as your Personal.

You can edit, replace or remove any tab part or add personal notes – all changes will be seen only by you.

Personal tabs can be accessed anytime from any device, even offline.
Learn more »
Give kudos to tab author, rate the tab!
1 2 3 4 5
comments
print report bad tab
guest
You may want to rate the tab now too:
select rating
Wanna post a correction for this tab? Suggest correction