Oops, an error
Loading. Please wait.

Pens bass

by Tancred
56 views 1 this week
no commentswrite comment
1 2 3 4 5
2 more votes to show rating
add to favorites
×
Save as Personal and add changes to this tab that will be seen only by you. Learn more ›
×
You can save this tab as Personal to edit and correct it or add notes. All changes will be seen only by you. Learn more »
launch autoscroll
font size
0
reset
guitar tuner
edit
Autoscroll
slow
fast
+/-
esc
set tempo
stop
Author
Difficulty
This is the whole bass tab for Pens by Tancred, off of her 2016 release Out of the Garden. I tried to submit
this with lyrics and some time marks for reference. There are a couple of bass fills, I believe, that I
missed, so feel free to help me out in the comments if you'd like.
Enjoy.

[0:16] In my car...               can hardly steer...
G|----------------------------------------------------------------------------|
D|-----------------------------------------3-3--------------------------------|
A|---------------------------------5-5-3-3------------------------------------|
E|-----------2-2-2-2-2-2-2-2-2-2-2-------------3-3-3-3-3-3-3-3-3-3-3-3--------|

   In my desk...                    many pens there...
G|----------------------------------------------------------------------------|
D|-----------------------------------------3-3--------------------------------|
A|-5-5-3-3-------------------------5-5-3-3------------------------------------|
E|---------2-2-2-2-2-2-2-2-2-2-2-2-------------3-3-3-3-3-3-3-3-3-3-3-3-3-3-3-3|

Write my name... cross it out in shame...
G|----------------------------------------------------------------------------|
D|----------------------------------------------------------------------------|
A|----------------------------------------------------------------------------|
E|-2-2-2-2-2-2-2-2-2-2-2-2-2-2-2-2-3-3-3-3-3-3-3-3-3-3-3-3-3-3-3-3------------|

    Burn it up...                   blow away...
G|----------------------------------------------------------------------------|
D|----------------------------------------------------------------------------|
A|----------------------------------------------------------------------------|
E|-0-0-0-0-0-0-0-0-0-0-0-0-0-0-0-0-5-5-5-5-5-5-5-5-5-5-5-5-5------------------|

   Ooooh,      I'm insanely healthy in my head   It's crazy how stable I
G|----------------------------------------------------------------------------|
D|----------------------------------------------------------------------------|
A|-5-5-5-5-x-----------------------5-5-5-5-x----------------------------------|
E|-----------7-7-x-0~~~0-0-6-6-5-5-----------7-7-x-0~~~0-0-6-6-5-5------------|

     am               Ooh, oooh
G|----------------------------------------------------------------------------|
D|----------------------------------------------------------------------------|
A|-5-5-5-5-x-----------------------5-5-5-5-x----------------------------------|
E|-----------7-7-x-0~~~0-0-6-6-5-5-----------7-7-x-0~~~0-0-6-6-5-5------------|

G|----------------------------------------------------------------------------|
D|-----------------------------------------3-3--------------------------------|
A|---------------------------------5-5-3-3------------------------------------|
E|-----------2-2-2-2-2-2-2-2-2-2-2-------------3-3-3-3-3-3-3-3-3-3-3-3--------|

G|----------------------------------------------------------------------------|
D|-----------------------------------------3-3--------------------------------|
A|-5-5-3-3-------------------------5-5-3-3------------------------------------|
E|---------2-2-2-2-2-2-2-2-2-2-2-2-------------3-3-3-3-3-3-3-3-3-3-3-3--------|

  In my debt...                   I cannot be heard...
G|----------------------------------------------------------------------------|
D|-----------------------------------------3-3--------------------------------|
A|-5-5-3-3-------------------------5-5-3-3------------------------------------|
E|---------2-2-2-2-2-2-2-2-2-2-2-2-------------3-3-3-3-3-3-3-3-3-3-3-3--------|

    In his eyes...                   evil in words....
G|----------------------------------------------------------------------------|
D|-----------------------------------------3-3--------------------------------|
A|-5-5-3-3-------------------------5-5-3-3------------------------------------|
E|---------2-2-2-2-2-2-2-2-2-2-2-2-------------3-3-3-3-3-3-3-3-3-3-3-3-3-3-3-3|

    Call my friends up...          I wanna go out tonight...
G|----------------------------------------------------------------------------|
D|----------------------------------------------------------------------------|
A|----------------------------------------------------------------------------|
E|-2-2-2-2-2-2-2-2-2-2-2-2-2-2-2-2-3-3-3-3-3-3-3-3-3-3-3-3-3-3-3-3------------|

    Meet a guy...                  blow away...
G|----------------------------------------------------------------------------|
D|----------------------------------------------------------------------------|
A|----------------------------------------------------------------------------|
E|-0-0-0-0-0-0-0-0-0-0-0-0-0-0-0-0-5-5-5-5-5-5-5-5-5-5-5-5-5------------------|

    Ooooh,      I'm insanely healthy in my head, It's crazy how stable I
G|----------------------------------------------------------------------------|
D|----------------------------------------------------------------------------|
A|-5-5-5-5-x-----------------------5-5-5-5-x----------------------------------|
E|-----------7-7-x-0~~~0-0-6-6-5-5-----------7-7-x-0~~~0-0-6-6-5-5------------|

    am              Ooh, oooh        Ooooh, ooh-oooh  [1:59 played ~ halftime]
G|----------------------------------------------------------------------------|
D|----------------------------------------------------------------------------|
A|-5-5-5-5-x-----------------------5-5-5-5-x--------------8--7----------------|
E|-----------7-7-x-0~~~0-0-6-6-5-5-----------7-7-x-0-00-6--5------------------|

     [played 4x's]        [1,2,3]   [final into rest]
G|----------------------|---------|-------------------------------------------|
D|----------------------|---------|-------------------------------------------|
A|-5-5-5----------------|---------|-------------------------------------------|
E|--------5-5-7-7-3-3-3-|-4-4-4-4-|-4-5-6-7-----------------------------------|

[2:36] In my car...       can hardly steer...
G|----------------------------------------------------------------------------|
D|-------------------------------3-3------------------------------------------|
A|-----------------------5-5-3-3----------------------------------------------|
E|-----------22-x-2-22-2-------------33-x-3-33-3------------------------------|

    In my desk...        many pens there...         [rest]
G|----------------------------------------------------------------------------|
D|-----------------------------3-3--------------------------------------------|
A|-5-5-3-3-------------5-5-3-3------------------------------------------------|
E|---------22-x-2-22-2-------------33-x-3-33-3--------------------------------|

    Ooooh, I'm insanely healthy in my head, It's crazy how stable I
G|----------------------------------------------------------------------------|
D|----------------------------------------------------------------------------|
A|-5-5-5-5-x-----------------------5-5-5-5-x----------------------------------|
E|-----------7-7-x-0~~~0-0-6-6-5-5-----------7-7-x-0~~~0-0-6-6-5-5------------|

     am             Ooh, oooh                     Ooh, oooh
G|----------------------------------------------------------------------------|
D|----------------------------------------------------------------------------|
A|-5-5-5-5-x-----------------------5-5-5-5-x-----------------8--7-5-5-3-3-----|
E|-----------7-7-x-0~~~0-0-6-6-5-5-----------7-7-x-0~~~0-0-6--5---------------|


************************************

| x  Dead note
| ~  Vibrato

************************************

            
            
Suggest correction
Creating personal tab
Creating personal tab
You can edit any tab online and save it as your Personal.

You can edit, replace or remove any tab part or add personal notes – all changes will be seen only by you.

Personal tabs can be accessed anytime from any device, even offline.
Learn more »
Give kudos to tab author, rate the tab!
1 2 3 4 5
comments
print report bad tab
guest
You may want to rate the tab now too:
select rating
Wanna post a correction for this tab? Suggest correction