Oops, an error
Loading. Please wait.

Pens tab

by Tancred
508 views 3 this week
no commentswrite comment
1 2 3 4 5
2 more votes to show rating
add to favorites
×
Save as Personal and add changes to this tab that will be seen only by you. Learn more ›
×
You can save this tab as Personal to edit and correct it or add notes. All changes will be seen only by you. Learn more »
launch autoscroll
font size
0
reset
how to read this tab
guitar tuner
edit
Autoscroll
slow
fast
+/-
esc
set tempo
stop
Author
Difficulty
[Intro]
Guitar 1/2:
e|-----------------------------------|---------------------------------------|
B|-----------------------------------|---------------------------------------|
G|-----------------------------------|---------------------------------------|
D|--0-0-0-0--------------------------|--0-0-0-0-0-0--------------------------| x4
A|--5-5-3-3-0-0-0-0-0-0-0-0-0-0-0-0--|--5-5-3-3-8-8-0-0-0-0-0-0-0-0-0-0-0-0--|
E|----------2-2-2-2-2-2-2-2-2-2-2-2--|--------------3-3-3-3-3-3-3-3-3-3-3-3--|
    . . . . . . . . . . . . . . . .     . . . . . . . . . . . . . . . . . .



[Pre-Chorus]
Guitar 1/2:
e|-----------------------------------|-----------------------------------|
B|-----------------------------------|-----------------------------------|
G|-----------------------------------|-----------------------------------|
D|-----------------------------------|-----------------------------------|
A|--0-0-0-0-0-0-0-0-0-0-0-0-0-0-0-0--|--0-0-0-0-0-0-0-0-0-0-0-0-0-0-0-0--|
E|--2-2-2-2-2-2-2-2-2-2-2-2-2-2-2-2--|--3-3-3-3-3-3-3-3-3-3-3-3-3-3-3-3--|
    . . . . . . . . . . . . . . . .     . . . . . . . . . . . . . . . .

e|-----------------------------------|-----------------------------------|
B|-----------------------------------|-----------------------------------|
G|-----------------------------------|-----------------------------------|
D|-----------------------------------|-----------------------------------|
A|--0-0-0-0-0-0-0-0-0-0-0-0-0-0-0-0--|--4-4-4-4-4-4-4-4-4-4-4-4-4-4-4-4--|
E|--0-0-0-0-0-0-0-0-0-0-0-0-0-0-0-0--|--5-5-5-5-5-5-5-5-5-5-5-5-5-5-5-5--|
    . . . . . . . . . . . . . . . .     . . . . . . . . . . . .



[Chorus]
Guitar 1/2:
e||------------------------------------|------------------------------------|
B||------------------------------------|------------------------------------|
G||-------------4-4-4------------------|-------------4-4-4------------------|
D||--7-7-7-7----4-4-4-2---2---8-8-7-7--|--7-7-7-7----4-4-4-2---2---8-8-7-7--|
A||--5-5-5-5----2-2-2-2---2---8-8-7-7--|--5-5-5-5----2-2-2-2---2---8-8-7-7--|
E||--5-5-5-5----------0---0---6-6-5-5--|--5-5-5-5----------0---0---6-6-5-5--|


e||------------------------------------|------------------------------------|
B||------------------------------------|------------------------------------|
G||-------------4-4-4------------------|-------------4-4-4---------------0--|
D||--7-7-7-7----4-4-4-2---2---8-8-7-7--|--7-7-7-7----4-4-4-2---2-----3------|
A||--5-5-5-5----2-2-2-2---2---8-8-7-7--|--5-5-5-5----2-2-2-2---2---1---0----|
E||--5-5-5-5----------0---0---6-6-5-5--|--5-5-5-5----------0---0------------|



[Verse]
Guitar 1:
e|-----------------------------------|---------------------------------------|
B|-----------------------------------|---------------------------------------|
G|-----------------------------------|---------------------------------------|
D|--0-0-0-0--------------------------|--0-0-0-0-0-0--------------------------| x4
A|--5-5-3-3-0-0-0-0-0-0-0-0-0-0-0-0--|--5-5-3-3-8-8-0-0-0-0-0-0-0-0-0-0-0-0--|
E|----------2-2-2-2-2-2-2-2-2-2-2-2--|--------------3-3-3-3-3-3-3-3-3-3-3-3--|
    . . . . . . . . . . . . . . . .     . . . . . . . . . . . . . . . . . .


Guitar 2:
e|--0~--|--2~--|
B|--3~--|--3~--|
G|--0~--|--0~--|
D|------|------| x2
A|------|------|
E|------|------|



[Verse]
Guitar 1/2:
e|-----------------------------------|---------------------------------------|
B|-----------------------------------|---------------------------------------|
G|-----------------------------------|---------------------------------------|
D|--0-0-0-0--------------------------|--0-0-0-0-0-0--------------------------| x2
A|--5-5-3-3-0-0-0-0-0-0-0-0-0-0-0-0--|--5-5-3-3-8-8-0-0-0-0-0-0-0-0-0-0-0-0--|
E|----------2-2-2-2-2-2-2-2-2-2-2-2--|--------------3-3-3-3-3-3-3-3-3-3-3-3--|



[Pre-Chorus]
Guitar 1:
e|-----------------------------------|-----------------------------------|
B|-----------------------------------|-----------------------------------|
G|-----------------------------------|-----------------------------------|
D|-----------------------------------|-----------------------------------|
A|--0-0-0-0-0-0-0-0-0-0-0-0-0-0-0-0--|--0-0-0-0-0-0-0-0-0-0-0-0-0-0-0-0--|
E|--2-2-2-2-2-2-2-2-2-2-2-2-2-2-2-2--|--3-3-3-3-3-3-3-3-3-3-3-3-3-3-3-3--|
    . . . . . . . . . . . . . . . .     . . . . . . . . . . . . . . . .

e|-----------------------------------|-----------------------------------|
B|-----------------------------------|-----------------------------------|
G|-----------------------------------|-----------------------------------|
D|-----------------------------------|-----------------------------------|
A|--0-0-0-0-0-0-0-0-0-0-0-0-0-0-0-0--|--4-4-4-4-4-4-4-4-4-4-4-4-4-4-4-4--|
E|--0-0-0-0-0-0-0-0-0-0-0-0-0-0-0-0--|--5-5-5-5-5-5-5-5-5-5-5-5-5-5-5-5--|
    . . . . . . . . . . . . . . . .     . . . . . . . . . . . .


Guitar 2:
e|------|------|--0~--|------|
B|--3~--|--2~--|--3~--|--2~--|
G|--2~--|--2~--|--2~--|--2~--|
D|--2~--|--2~--|------|--2~--|
A|------|------|------|------|
E|------|------|------|------|



[Chorus]
Guitar 1/2:
e||------------------------------------|------------------------------------|
B||------------------------------------|------------------------------------|
G||-------------4-4-4------------------|-------------4-4-4------------------|
D||--7-7-7-7----4-4-4-2---2---8-8-7-7--|--7-7-7-7----4-4-4-2---2---8-8-7-7--|
A||--5-5-5-5----2-2-2-2---2---8-8-7-7--|--5-5-5-5----2-2-2-2---2---8-8-7-7--|
E||--5-5-5-5----------0---0---6-6-5-5--|--5-5-5-5----------0---0---6-6-5-5--|


e||------------------------------------|--------------------------------------------|
B||------------------------------------|--------------------------------------------|
G||-------------4-4-4------------------|-------------4-4-4--------------------------|
D||--7-7-7-7----4-4-4-2---2---8-8-7-7--|--7-7-7-7----4-4-4-2---2-------3-------2----|
A||--5-5-5-5----2-2-2-2---2---8-8-7-7--|--5-5-5-5----2-2-2-2---2---1-------0--------|
E||--5-5-5-5----------0---0---6-6-5-5--|--5-5-5-5----------0---0-----------------0--|
                                                                                 .



[Solo]
Guitar 1:
e|----------------|-------5-----|---------------------------|
B|---7-----7---7--|-5--7--------|---------------------------|
G|----------------|----------7--|--(7)--7--7--7b8r7--7b8r7--|
D|----------------|-------------|---------------------------|
A|----------------|-------------|---------------------------|
E|----------------|-------------|---------------------------|
                                 
e|----------------|-------5--7--|--5--7--5--7b8--|
B|---7-----7---7--|-5--7--------|----------------|
G|----------------|-------------|----------------|
D|----------------|-------------|----------------|
A|----------------|-------------|----------------|
E|----------------|-------------|----------------|


e|----------------|-------5-----|---------------------------|
B|---7-----7---7--|-5--7--------|---------------------------|
G|----------------|----------7--|--(7)--7--7--7b8r7--7b8r7--|
D|----------------|-------------|---------------------------|
A|----------------|-------------|---------------------------|
E|----------------|-------------|---------------------------|
                                 
e|----------------|-------5--7--|-------7b8------|
B|---7-----7---7--|-5--7--------|----------------|
G|----------------|-------------|----------------|
D|----------------|-------------|----------------|
A|----------------|-------------|----------------|
E|----------------|-------------|----------------|


Guitar 2:
e|------------------------------------------------------|
B|------------------------------------------------------|
G|----------------2--2--3--3----------------------------|
D|--7------7------2--2--3--3--5------5------6--6--6--6--|
A|--5------5------0--0--1--1--5------5------6--6--6--6--|
E|--5------5------------------3------3------4--4--4--4--|


e|------------------------------------------------------|
B|------------------------------------------------------|
G|----------------2--2--3--3----------------------------|
D|--7------7------2--2--3--3--5------5------6-----6--6--|
A|--5------5------0--0--1--1--5------5------6-----6--6--|
E|--5------5------------------3------3------4-----4--4--|


e|-------------------------------------------------------|
B|-------------------------------------------------------|
G|----------------2--2--3--3-----------------------------|
D|--7------7------2--2--3--3--5------5------6--7--8--9\--|
A|--5------5------0--0--1--1--5------5------6--7--8--9\--|
E|--5------5------------------3------3------4--5--6--7\--|



[Bridge]
Guitar 1/2:
e|-----------|-----------|-----------|-----------|
B|-----------|-----------|-----------|-----------|
G|-----------|-----------|-----------|-----------|
D|--0-0-0-0--|--0-0-0-0--|--0-0-0-0--|--0-0-0-0--|
A|--5-5-3-3--|--5-5-3-3--|--5-5-3-3--|--5-5-3-3--|
E|-----------|-----------|-----------|-----------|
    . . . .     . . . .     . . . .     . . . .


e|-----------------------------------|---------------------------------------|
B|-----------------------------------|---------------------------------------|
G|-----------------------------------|---------------------------------------|
D|--0-0-0-0--------------------------|--0-0-0-0-0-0--------------------------| x2
A|--5-5-3-3-0-0-0-0-0-0-0-0-0-0-0-0--|--5-5-3-3-8-8-0-0-0-0-0-0-0-0-0-0-0-0--|
E|----------2-2-2-2-2-2-2-2-2-2-2-2--|--------------3-3-3-3-3-3-3-3-3-3-3-3--|
    . . . . . . . . . . . . . . . .     . . . . . . . . . . . . . . . . . .


e|-----------|-----------|
B|-----------|-----------|
G|-----------|-----------|
D|--0-0-0-0--|--0-0-0-0--|
A|--5-5-3-3--|--5-5-3-3--|
E|-----------|-----------|
    . . . .     . . . .



[Chorus / Outro]
Guitar 1/2:
e||------------------------------------|------------------------------------|
B||------------------------------------|------------------------------------|
G||-------------4-4-4------------------|-------------4-4-4------------------|
D||--7-7-7-7----4-4-4-2---2---8-8-7-7--|--7-7-7-7----4-4-4-2---2---8-8-7-7--|
A||--5-5-5-5----2-2-2-2---2---8-8-7-7--|--5-5-5-5----2-2-2-2---2---8-8-7-7--|
E||--5-5-5-5----------0---0---6-6-5-5--|--5-5-5-5----------0---0---6-6-5-5--|


e||------------------------------------|------------------------------------|
B||------------------------------------|------------------------------------|
G||-------------4-4-4------------------|-------------4-4-4------------------|
D||--7-7-7-7----4-4-4-2---2---8-8-7-7--|--7-7-7-7----4-4-4-2---2-----3---2--|
A||--5-5-5-5----2-2-2-2---2---8-8-7-7--|--5-5-5-5----2-2-2-2---2---1---0----|
E||--5-5-5-5----------0---0---6-6-5-5--|--5-5-5-5----------0---0------------|


Guitar 1:
e|-----------|
B|-----------|
G|-----------|
D|--0-0-0-0--|
A|--5-5-3-3--|
E|-----------|


Guitar 2:
e|-----------|
B|-----------|
G|-----------|
D|--7-7-7-7--|
A|--5-5-5-5--|
E|--5-5-5-5--|



************************************

| .   Palm mute
| (n) Ghost note
| r   Release
| b   Bend
| \   Slide down

************************************

            
            
Suggest correction
Creating personal tab
Creating personal tab
You can edit any tab online and save it as your Personal.

You can edit, replace or remove any tab part or add personal notes – all changes will be seen only by you.

Personal tabs can be accessed anytime from any device, even offline.
Learn more »
Give kudos to tab author, rate the tab!
1 2 3 4 5
comments
print report bad tab
guest
You may want to rate the tab now too:
select rating
Wanna post a correction for this tab? Suggest correction