Oops, an error
Loading. Please wait.

Forty Winks tab

709 views 6 this week
1 commentread comment
1 2 3 4 5
x 3
add to favorites
×
Save as Personal and add changes to this tab that will be seen only by you. Learn more ›
×
You can save this tab as Personal to edit and correct it or add notes. All changes will be seen only by you. Learn more »
launch autoscroll
font size
0
reset
how to read this tab
guitar tuner
edit
Autoscroll
slow
fast
+/-
esc
set tempo
stop
Author
Difficulty
-------------------------------------------------------------------------------
                             FORTY WINKS - Tangled Hair
-------------------------------------------------------------------------------

Alan put the chords up ages ago on their blog and it's always a mission to refind so 
I thought I'd put them here in a vaguely tabbed out way.
If anyone wants to fill out the rest please do.

Tuning: EADGBE

e|----0------------------------------------------------0---0-------------------------|
B|-0--5--10-12--14----------------------------0---0---5---5-5---10---10-----12-----14|
G|-7--4--0--9---11--strum them for a bit-----7---7---4---4-----0----6------9-----11--|
D|-4-----9--12--11--------------------------4---4-------------9----9-----12----11----|
A|-0--------0------------------------------0---0-------------------------------------|
E|----3--7----------------------------------------3---3----7----7-----0-----0--------|

That bit X 9 with some weird variations then

e|----------------------------|
B|------0----------0-3-----3--|
G|--7-6----11-9--6----6---0---|
D|-----7-----------------4----| X 8 then some chordage I can't quite figure out 
A|----------------------------| around that then back to 2nd bit then END.
E|--7------10----3---5---0----|

            
            
Suggest correction
Creating personal tab
Creating personal tab
You can edit any tab online and save it as your Personal.

You can edit, replace or remove any tab part or add personal notes – all changes will be seen only by you.

Personal tabs can be accessed anytime from any device, even offline.
Learn more »
Give kudos to tab author, rate the tab!
1 2 3 4 5
comments
print report bad tab
1 comment total.
0 reply
Ry00n 774 Jan 22, 2016 09:08 AM

Heres some more of the song.

This is how I play the second part.

E|-----------------------------------------
B|--------------7--5--------------------3--
G|--7--6--------------6--4--7--6-----0-----
D|--------7--9--0-----------------4--------
A|--------------------------0--------------
E|--7-----7--9--------3-----------0--------

Then the loud, chord version of it.

E|-----------------------0--
B|--------------7--------3--
G|--7--6-----------4--6--0--
D|--0-----7--9-----------4--
A|--------------5-----------
E|--7-----7--9-----3--5--0--

Some licks done near the end.

E|-----------------------------------------------0-----------0-----------------------------
B|-----------0-----------0--------------------5-----------5-----5-----3--5-----------------
G|--------7-----------7-----------2--4-----4-----------4--------------------4--------------
D|-----4-----------4-----------4-----------------------------------------------5--2--4--5--
A|--0-----------0-----------0--------------------------------------------------------------
E|--------------------------------------3-----------3--------------------------------------

E|--------------------------------------------0-----------0--------------------------------------
B|-----------0-----------0-----------------5-----------5-----5-----------7--5--------------------
G|--------7-----------7-----------4-----4-----------4--------------2--4--------7--6--------6--7--
D|-----4-----------4-----------4-----------------------------------------------------4--5--------
A|--0-----------0-----------0--------------------------------------------------------------------
E|-----------------------------------3-----------3-----------------------------------------------

guest
You may want to rate the tab now too:
select rating
Wanna post a correction for this tab? Suggest correction