Oops, an error
Loading. Please wait.

Presente Tab

44 views 1 this week
no commentswrite comment
1 2 3 4 5
3 more votes to show rating
add to favorites
launch autoscroll
font size
0
reset
how to read this tab
guitar tuner
×
Best way to learn
"Presente"
Autoscroll
slow
fast
+/-
esc
set tempo
stop
Como Intro o en toda la canción o para el solo.

1|----------------------------------------------|
2|----------------------------------------------|
3|-------------------------5-5-5-4---2-2-2------|
4|-----2-2----------55----------------------5---|
5|----------3---5-------------------------------|
6|----------------------------------------------|


1|----------------------------------------------|
2|----------------------------------------------|
3|---2-2--------------2-2-----------------------|
4|---------3-2---55---------3-2-----------------|
5|--------------------------------5-------------|
6|----------------------------------------------|

1|----------------------------------------------|
2|----------------------------------------------|
3|-------------------------5-5-5-4---2-2-2------|
4|-----2-2----------55----------------------5---|
5|----------3---5-------------------------------|
6|----------------------------------------------|

1|----------------------------------------------|
2|----------------------------------------------|
3|----2-5--2-----2--------222--4-24-------------|
4|------------5-----5---------------------------|
5|----------------------------------------------|
6|----------------------------------------------|

1|-----------------------------------------------------
2|5-5-5-3-------------------2-5--2---2---2224-24-------
3|---------5-4--555-4-22-----------5--5----------------
4|----------------------5------------------------------
5|-----------------------------------------------------
6|-----------------------------------------------------


1|----------------------------------------------------|
2|----------------------------------------------------|
3|5-5-5-5-5---5-4----2-4-2-4-4---2--2--2--4----------|
4|-----------------------------5--5--5--5----5-5-5-5-5|
5|----------------------------------------------------|
6|----------------------------------------------------|

|---------------------------------------|
2|---------------------------------------|
3|---------------------------------------|
4|---3-3-3--3-2?3-5?2--5-----------------|
5|---------------------------------------|
6|---------------------------------------|

Repite últimos dos.
Es la melodía de toda la canción muy buena para tocar con 
dos guitarras una el rasgueo y otra el punteo?????
Suggest correction
Give kudos to tab author, rate the tab!
1 2 3 4 5
comments
print report bad tab
guest
You may want to rate the tab now too:
select rating
Wanna post a correction for this tab? Suggest correction