Oops, an error
Loading. Please wait.

Good Tradition bass

176 views 1 this week
no commentswrite comment
1 2 3 4 5
3 more votes to show rating
add to favorites
×
Save as Personal and add changes to this tab that will be seen only by you. Learn more ›
×
You can save this tab as Personal to edit and correct it or add notes. All changes will be seen only by you. Learn more »
launch autoscroll
font size
0
reset
guitar tuner
edit
Autoscroll
slow
fast
+/-
esc
set tempo
stop
Author
Difficulty
Good Tradition
Written and recorded by Tanita Tikaram in 1988 reaching number 10 in UK
Tab by bass50611. Nice and easy, Very catchy tune. 
Comments at bass254@btinternet.com 

Intro:
G|-------------|----------------------------------------
D|-DRUM START--|----------------------------------------
A|-------------|------4-4-------6-6-------4-4-------6-6-
E|-------------|-4-4-------4-4-------4-4-------4-4------

Verse 1:
G|----------------------------------------
D|----------------------------------------
A|------4-4-------6-6-------4-4-------6-6-
E|-4-4-------4-4-------4-4-------4-4------

Verse 2:
G|-----------------------------------------
D|-----------------------------------------
A|---3--4-4-------6-6-----3--4-4-------6-6-
E|-4---------4-4--------4---------4-4------

Chorus:
G|-------------------------------------
D|---3---------------------3-----------
A|-4------3---6-6----3---4-----3---6-6-
E|------4----------4---------4---------

Instrumental 1:
G|----------------------------------------
D|---------3------------------3-----------
A|---3---4-----3--6-6----3--4------3--6-6-
E|-4---------4---------4---------4--------

Verse 3:
G|-------------------------------------------------------------
D|-------------------------------------------------------------
A|---3--4-4-------6-6-----3--4-4-------6-6----3--4-4----3--6-6-
E|-4---------4-4--------4---------4-4-------4---------4--------

Repeat Chorus:

Instrumental 2:                  (Play This x2)
G|----------------------------------------
D|---------3------------------3-----------
A|---3---4-----3--6-6----3--4------3--6-6-
E|-4---------4---------4---------4--------

For Verse 4 - Repeat Verse 1:

For Verse 5 - Repeat Instrumental 1:

Repeat Chorus:

Repeat Instrumental 1 and End On G#:


            
            
Suggest correction
Creating personal tab
Creating personal tab
You can edit any tab online and save it as your Personal.

You can edit, replace or remove any tab part or add personal notes – all changes will be seen only by you.

Personal tabs can be accessed anytime from any device, even offline.
Learn more »
Give kudos to tab author, rate the tab!
1 2 3 4 5
comments
print report bad tab
guest
You may want to rate the tab now too:
select rating
Wanna post a correction for this tab? Suggest correction