Oops, an error
Loading. Please wait.

He Fell In Love With A Stormtrooper Bass Tab

version 1
version 1

Whole song

Interactive

by Tank
13 views 3 this week
no commentswrite comment
1 2 3 4 5
3 more votes to show rating
add to favorites
launch autoscroll
font size
0
reset
guitar tuner
Autoscroll
slow
fast
+/-
esc
set tempo
stop
Help us to improve Ultimate-Guitar.com Take our survey!
×
Author
Difficulty
novice
                             TANK - HE FELL IN LOVE WITH A STORMTROOPER

Tabbed by: Rottney (reconssuck)
E-mail: reconssuck@hotmail.de

Artist: Tank
Song: (He Fell In Love With A) Stormtrooper
Album: Filth Hounds of Hades (1982)
Bassist: Algy Ward


Tuning: Standard (EADG)


[Intro]

G|---------|
D|---------|
A|---------|
E|--5------|


G|---------|---------|---------|---------|---------|
D|---------|---------|---------|---------|---------|
A|---------|---------|---------|---------|---------|
E|--5------|--3------|--2------|--3------|--4------|

[Intro End] x2

G|----------------------------------|----------------------------------|
D|----------------------------------|----------------------------------|
A|----------------------------------|----------------------------------|
E|--5-5-5-5-5-5-5-5-5-5-5-5-5-5-5-5-|--3-3-3-3-3-3-3-3-3-3-3-3-3-3-3-3-|

G|----------------------------------|-----------------|-----------------|
D|----------------------------------|-----------------|-----------------|
A|----------------------------------|-----------------|-----------------|
E|--2-2-2-2-2-2-2-2-2-2-2-2-2-2-2-2-|-3-3-3-3-3-3-3-3-|-4-4-4-4-4-4-4-4-|


[Verse] x3

G|----------------------------|-------|
D|----------------------------|-------|
A|----------------------------|-------|
E|--5-5-5-5-5-5-5-5-5-5-5-5-5-|-0-0-3-|

[Verse End]

G|----------------------------------|
D|----------------------------------|
A|----------------------------------|
E|--5-5-5-5-5-5-5-5-5-5-5-5-5-5-5-5-|

[Pre Chorus]

G|------------------|---------------|------------------------------|
D|------------------|---------------|------------------------------|
A|--3-3-3-3-3-3-3-3-|-------0-2-3-5-|-0-0-0-0-0-0-0-0-0-0-0-0-0-0--|
E|------------------|-0-2-3---------|------------------------------|

G|------------------|---------------|---------------|--------------|
D|------------------|---------------|---------------|--------------|
A|--3-3-3-3-3-3-3-3-|-------0-2-3-5-|-5-5-5-5-5-5-5-|-6-6-6-6-6-6--|
E|------------------|-0-2-3---------|---------------|--------------|

[Chorus] x2

G|----------------------------------|----------------------------------|
D|----------------------------------|----------------------------------|
A|----------------------------------|----------------------------------|
E|--5-5-5-5-5-5-5-5-5-5-5-5-5-5-5-5-|--3-3-3-3-3-3-3-3-3-3-3-3-3-3-3-3-|

G|----------------------------------|-----------------|-----------------|
D|----------------------------------|-----------------|-----------------|
A|----------------------------------|-----------------|-----------------|
E|--2-2-2-2-2-2-2-2-2-2-2-2-2-2-2-2-|-3-3-3-3-3-3-3-3-|-4-4-4-4-4-4-4-4-|

[Verse] x3

G|----------------------------|-------|
D|----------------------------|-------|
A|----------------------------|-------|
E|--5-5-5-5-5-5-5-5-5-5-5-5-5-|-0-0-3-|

[Verse End]

G|----------------------------------|
D|----------------------------------|
A|----------------------------------|
E|--5-5-5-5-5-5-5-5-5-5-5-5-5-5-5-5-|

[Pre Chorus]

G|------------------|---------------|------------------------------|
D|------------------|---------------|------------------------------|
A|--3-3-3-3-3-3-3-3-|-------0-2-3-5-|-0-0-0-0-0-0-0-0-0-0-0-0-0-0--|
E|------------------|-0-2-3---------|------------------------------|

G|------------------|---------------|---------------|--------------|
D|------------------|---------------|---------------|--------------|
A|--3-3-3-3-3-3-3-3-|-------0-2-3-5-|-5-5-5-5-5-5-5-|-6-6-6-6-6-6--|
E|------------------|-0-2-3---------|---------------|--------------|

[Chorus] x2

G|----------------------------------|----------------------------------|
D|----------------------------------|----------------------------------|
A|----------------------------------|----------------------------------|
E|--5-5-5-5-5-5-5-5-5-5-5-5-5-5-5-5-|--3-3-3-3-3-3-3-3-3-3-3-3-3-3-3-3-|

G|----------------------------------|-----------------|-----------------|
D|----------------------------------|-----------------|-----------------|
A|----------------------------------|-----------------|-----------------|
E|--2-2-2-2-2-2-2-2-2-2-2-2-2-2-2-2-|-3-3-3-3-3-3-3-3-|-4-4-4-4-4-4-4-4-|

[Solo Backing]

G|---------------------------------|------------------------------------|
D|-------------------------0-0-4-4-|-------------------4-2-0-2-0--------|
A|-2-2-2-2-2-2-2-2-2-2-2-2---------|-0-0-0-0-0-0-0-0-0-----------2-0----|
E|---------------------------------|------------------------------------|


G|---------------------------------|-----------------------------------|
D|---------------------------------|-----------------------------------|
A|---------------------------------|-----------------------------------|
E|-0-0-3-0-0-3-0-0-3-0-0-3-0-0-3-0-|-2-2-2-2-2-2-2-2-2-2-2-2-2-2-2-2-2-|

[Solo Backing End]

G|---------------------------------|------------------------------------|
D|---------0-0-4-4---------0-0-4-4-|-------------------4-2-0-2-0--------|
A|-2-2-2-2---------2-2-2-2---------|-0-0-0-0-0-0-0-0-0-----------2-0----|
E|---------------------------------|------------------------------------|


G|---------------------------------|-----------------|------------------|
D|---------------------------------|-----------------|------------------|
A|---------------------------------|-----------------|------------------|
E|-0-0-3-0-0-3-0-0-3-0-0-3-0-0-3-0-|-2-2-2-2-2-2-2-2-|-2-2-3-3-5-5-7----|


G|---------|---------|---------|---------|---------|
D|---------|---------|---------|---------|---------|
A|---------|---------|---------|---------|---------|
E|--5------|--3------|--2------|--3------|--4------|

[Chorus] 

G|----------------------------------|----------------------------------|
D|----------------------------------|----------------------------------|
A|----------------------------------|----------------------------------|
E|--5-5-5-5-5-5-5-5-5-5-5-5-5-5-5-5-|--3-3-3-3-3-3-3-3-3-3-3-3-3-3-3-3-|

G|----------------------------------|-----------------|-----------------|
D|----------------------------------|-----------------|-----------------|
A|----------------------------------|-----------------|-----------------|
E|--2-2-2-2-2-2-2-2-2-2-2-2-2-2-2-2-|-3-3-3-3-3-3-3-3-|-4-4-4-4-4-4-4-4-|

[Verse] x3

G|----------------------------|-------|
D|----------------------------|-------|
A|----------------------------|-------|
E|--5-5-5-5-5-5-5-5-5-5-5-5-5-|-0-0-3-|

[Verse End]

G|----------------------------------|
D|----------------------------------|
A|----------------------------------|
E|--5-5-5-5-5-5-5-5-5-5-5-5-5-5-5-5-|

[Pre Chorus]

G|------------------|---------------|------------------------------|
D|------------------|---------------|------------------------------|
A|--3-3-3-3-3-3-3-3-|-------0-2-3-5-|-0-0-0-0-0-0-0-0-0-0-0-0-0-0--|
E|------------------|-0-2-3---------|------------------------------|

G|------------------|---------------|---------------|--------------|
D|------------------|---------------|---------------|--------------|
A|--3-3-3-3-3-3-3-3-|-------0-2-3-5-|-5-5-5-5-5-5-5-|-6-6-6-6-6-6--|
E|------------------|-0-2-3---------|---------------|--------------|


[Chorus] x6

G|----------------------------------|----------------------------------|
D|----------------------------------|----------------------------------|
A|----------------------------------|----------------------------------|
E|--5-5-5-5-5-5-5-5-5-5-5-5-5-5-5-5-|--3-3-3-3-3-3-3-3-3-3-3-3-3-3-3-3-|

G|----------------------------------|-----------------|-----------------|
D|----------------------------------|-----------------|-----------------|
A|----------------------------------|-----------------|-----------------|
E|--2-2-2-2-2-2-2-2-2-2-2-2-2-2-2-2-|-3-3-3-3-3-3-3-3-|-4-4-4-4-4-4-4-4-|

(song breaks apart after that but ends on)

[Outro]

G|------------|
D|------------|
A|------------|
E|--5---5---5-|




That's all
Enjoy and Rate
Suggest correction
Give kudos to tab author, rate the tab!
1 2 3 4 5
comments
print report bad tab
guest
You may want to rate the tab now too:
select rating
Wanna post a correction for this tab? Suggest correction