Oops, an error
Loading. Please wait.

Heavy Artillery Bass Tab

by Tank
7 views 1 this week
no commentswrite comment
1 2 3 4 5
3 more votes to show rating
add to favorites
launch autoscroll
font size
0
reset
guitar tuner
Autoscroll
slow
fast
+/-
esc
set tempo
stop
Help us to improve Ultimate-Guitar.com Take our survey!
×
Author
Difficulty
novice
                             TANK - HEAVY ARTILLERY

Tabbed by: Rottney (reconssuck)
E-mail: reconssuck@hotmail.de

Artist: Tank
Song: Heavy Artillery
Album: Filth Hounds of Hades (1982)
Bassist: Algy Ward


Tuning: Standard (EADG)



[Intro]

G|--------------------|--------------------|---------------------|----------------|----------|
D|--------------------|--------------------|---------------------|----------------|----------|
A|-7--7-7-7-7-7-7-7-7-|-5--5-5-5-5-5-5-5-5-|--3--3-3-3-3-3-3-3-3-|-0-0-0-0-0-0-0-0|----------|
E|--------------------|--------------------|---------------------|----------------|-3-0-3-5--|


[Verse] x2

G|----------|----------|-------------|--------------|-------|------|
D|----------|----------|-------------|--------------|-------|-5-4--|
A|-5--7-7-7-|-5--7-7-7-|-7-5-7-5-7-7-|--------------|-5-5-5-|------|
E|----------|----------|-------------|-3-3--3-3-3-3-|-------|------|


G|----------|----------|-------------|--------------|---------|--------|
D|----------|----------|-------------|--------------|-7-5-4-0-|-5-4-0--|
A|-5--7-7-7-|-5--7-7-7-|-7-5-7-5-7-7-|--------------|---------|--------|
E|----------|----------|-------------|-3-3--3-3-3-3-|---------|--------|


[Pre-Chorus] x2

G|-----------------|---------------|-----------------------|-------|
D|-----------------|-----5-3-3-2-2-|-----------------------|-------|
A|-3-3-3-3-3-3-3-3-|-0-2-----------|-5-5-5-5-5-5-5-5-5-5-5-|-3--2--|
E|-----------------|---------------|-----------------------|-------|

[Chorus]

G|---------------------------------|
D|---------------------------------|
A|-7--7-7-7-7-7-7-7-7-7-7-7-7-7-7-7|
E|---------------------------------|

[Verse] x2

G|----------|----------|-------------|--------------|-------|------|
D|----------|----------|-------------|--------------|-------|-5-4--|
A|-5--7-7-7-|-5--7-7-7-|-7-5-7-5-7-7-|--------------|-5-5-5-|------|
E|----------|----------|-------------|-3-3--3-3-3-3-|-------|------|


G|----------|----------|-------------|--------------|---------|--------|
D|----------|----------|-------------|--------------|-7-5-4-0-|-5-4-0--|
A|-5--7-7-7-|-5--7-7-7-|-7-5-7-5-7-7-|--------------|---------|--------|
E|----------|----------|-------------|-3-3--3-3-3-3-|---------|--------|

[Pre-Chorus] x2

G|-----------------|---------------|-----------------------|-------|
D|-----------------|-----5-3-3-2-2-|-----------------------|-------|
A|-3-3-3-3-3-3-3-3-|-0-2-----------|-5-5-5-5-5-5-5-5-5-5-5-|-3--2--|
E|-----------------|---------------|-----------------------|-------|

[Bridge]

G|--------------------------------|-------------------------------|-------------------------------|
D|--------------------------------|-------------------------------|-------------------------------|
A|-7--7-7-7-7-7-7-7-7-7-7-7-7-7-7-|-5-5-5-5-5-5-5-5-5-5-5-5-5-5-5-|-3-3-3-3-3-3-3-3-3-3-3-3-3-3-3-|
E|--------------------------------|-------------------------------|-------------------------------|


G|-----------------|---------|
D|-----------------|---------|
A|-0-0-0-0-0-0-0-0-|---------|
E|-----------------|-3-0-3-5-|

[Solo Backing]

G|----------|----------|-------------|--------------|-------|------|
D|----------|----------|-------------|--------------|-------|-5-4--|
A|-5--7-7-7-|-5--7-7-7-|-7-5-7-5-7-7-|--------------|-5-5-5-|------|
E|----------|----------|-------------|-3-3--3-3-3-3-|-------|------|


G|----------|----------|-------------|--------------|---------|--------|
D|----------|----------|-------------|--------------|-7-5-4-0-|-5-4-0--|
A|-5--7-7-7-|-5--7-7-7-|-7-5-7-5-7-7-|--------------|---------|--------|
E|----------|----------|-------------|-3-3--3-3-3-3-|---------|--------|

[Pre-Chorus] x2

G|-----------------|---------------|-----------------------|-------|
D|-----------------|-----5-3-3-2-2-|-----------------------|-------|
A|-3-3-3-3-3-3-3-3-|-0-2-----------|-5-5-5-5-5-5-5-5-5-5-5-|-3--2--|
E|-----------------|---------------|-----------------------|-------|

[Fill]

G|-----------------------|
D|-----------------------|
A|-7-7-7-7-7-7-7-7-7-7/--|
E|-----------------------|

[Verse]

G|----------|----------|-------------|--------------|-------|------|
D|----------|----------|-------------|--------------|-------|-5-4--|
A|-5--7-7-7-|-5--7-7-7-|-7-5-7-5-7-7-|--------------|-5-5-5-|------|
E|----------|----------|-------------|-3-3--3-3-3-3-|-------|------|


G|----------|----------|-------------|--------------|---------|--------|
D|----------|----------|-------------|--------------|-7-5-4-0-|-5-4-0--|
A|-5--7-7-7-|-5--7-7-7-|-7-5-7-5-7-7-|--------------|---------|--------|
E|----------|----------|-------------|-3-3--3-3-3-3-|---------|--------|

[Pre-Chorus] x2

G|-----------------|---------------|-----------------------|-------|
D|-----------------|-----5-3-3-2-2-|-----------------------|-------|
A|-3-3-3-3-3-3-3-3-|-0-2-----------|-5-5-5-5-5-5-5-5-5-5-5-|-3--2--|
E|-----------------|---------------|-----------------------|-------|

[Chorus]

G|---------------------------------|
D|---------------------------------|
A|-7--7-7-7-7-7-7-7-7-7-7-7-7-7-7-7|
E|---------------------------------|

[Verse] x2

G|----------|----------|-------------|--------------|-------|------|
D|----------|----------|-------------|--------------|-------|-5-4--|
A|-5--7-7-7-|-5--7-7-7-|-7-5-7-5-7-7-|--------------|-5-5-5-|------|
E|----------|----------|-------------|-3-3--3-3-3-3-|-------|------|


G|----------|----------|-------------|--------------|---------|--------|
D|----------|----------|-------------|--------------|-7-5-4-0-|-5-4-0--|
A|-5--7-7-7-|-5--7-7-7-|-7-5-7-5-7-7-|--------------|---------|--------|
E|----------|----------|-------------|-3-3--3-3-3-3-|---------|--------|

[Pre-Chorus] x2

G|-----------------|---------------|-----------------------|-------|
D|-----------------|-----5-3-3-2-2-|-----------------------|-------|
A|-3-3-3-3-3-3-3-3-|-0-2-----------|-5-5-5-5-5-5-5-5-5-5-5-|-3--2--|
E|-----------------|---------------|-----------------------|-------|

[Fill]

G|-----------------------|
D|-----------------------|
A|-7-7-7-7-7-7-7-7-7-7/--|
E|-----------------------|

(song breaks apart after that, end on)

[Outro]

G|--------|---------|
D|--------|---------|
A|-7------|--7------|
E|--------|---------|




************************************
| /   Slide up
************************************

That's all.
Enjoy and Rate.
Suggest correction
Give kudos to tab author, rate the tab!
1 2 3 4 5
comments
print report bad tab
guest
You may want to rate the tab now too:
select rating
Wanna post a correction for this tab? Suggest correction