Oops, an error
Loading. Please wait.

Shellshock Bass Tab

version 1
version 1

Whole song

Interactive

by Tank
7 views 1 this week
no commentswrite comment
1 2 3 4 5
3 more votes to show rating
add to favorites
launch autoscroll
font size
0
reset
guitar tuner
Autoscroll
slow
fast
+/-
esc
set tempo
stop
Help us to improve Ultimate-Guitar.com Take our survey!
×
Author
Difficulty
novice
                             TANK - SHELLSHOCK

Tabbed by: Rottney (reconssuck)
E-mail: reconssuck@hotmail.de

Artist: Tank
Song: Shellshock
Album: Filth Hounds of Hades (1982)
Bassist: Algy Ward


Tuning: Standard (EADG)
                           


[Intro] (does not include intro jam, start when guitar plays the actual riff)

G|--------|----------|
D|--------|----------|
A|--------|----------|
E|-5------|--5---3---|

[Main Riff] x2

G|-----------------|---------|--------|
D|-----------------|---------|--------|
A|-0-0-0-0-0-0-0-0-|---------|-7-5-5--|
E|-----------------|-3-3-3-3-|--------|


[Verse] x4

G|---------------------------------|
D|---------------------------------|
A|-0-0-0-0-0-0-0-0-0-0-0-0-0-0-0-0-|
E|---------------------------------|

[Verse End] x2

G|-----------|-----------------|-----------|-------------------|
D|---------5-|-----------------|---------5-|-------------------|
A|-7-8-7-5---|-0-0-0-0-0-0-0-0-|-7-8-7-5---|-0-0-0-0-0-0-0-0---|
E|-----------|-----------------|-----------|-------------------|


[Main Riff] x2

G|-----------------|---------|--------|
D|-----------------|---------|--------|
A|-0-0-0-0-0-0-0-0-|---------|-7-5-5--|
E|-----------------|-3-3-3-3-|--------|

[Verse] x4

G|---------------------------------|
D|---------------------------------|
A|-0-0-0-0-0-0-0-0-0-0-0-0-0-0-0-0-|
E|---------------------------------|

[Verse End] x2

G|-----------|-----------------|-----------|-------------------|
D|---------5-|-----------------|---------5-|-------------------|
A|-7-8-7-5---|-0-0-0-0-0-0-0-0-|-7-8-7-5---|-0-0-0-0-0-0-0-0---|
E|-----------|-----------------|-----------|-------------------|


[Chorus] x4

G|--------|----------|
D|--------|----------|
A|-0-0----|------7---|
E|--------|-3--------|

[Solo Backing] x4

G|---------------------------------|
D|---------------------------------|
A|-7-7-7-7-7-7-7-7-7-7-7-7-7-7-7-7-|
E|---------------------------------|

[Main Riff] x4

G|-----------------|---------|--------|
D|-----------------|---------|--------|
A|-0-0-0-0-0-0-0-0-|---------|-7-5-5--|
E|-----------------|-3-3-3-3-|--------|


[Verse] x4

G|---------------------------------|
D|---------------------------------|
A|-0-0-0-0-0-0-0-0-0-0-0-0-0-0-0-0-|
E|---------------------------------|

[Verse End] x3

G|-----------|-----------------|-----------|-------------------|
D|---------5-|-----------------|---------5-|-------------------|
A|-7-8-7-5---|-0-0-0-0-0-0-0-0-|-7-8-7-5---|-0-0-0-0-0-0-0-0---|
E|-----------|-----------------|-----------|-------------------|


[Main Riff] x4

G|-----------------|---------|--------|
D|-----------------|---------|--------|
A|-0-0-0-0-0-0-0-0-|---------|-7-5-5--|
E|-----------------|-3-3-3-3-|--------|


[Outro]

G|--------|--------|---------|
D|--------|--------|---------|
A|--------|--------|-3--0----|
E|-1------|-3------|---------|




That's all
Enjoy and Rate
Suggest correction
Give kudos to tab author, rate the tab!
1 2 3 4 5
comments
print report bad tab
guest
You may want to rate the tab now too:
select rating
Wanna post a correction for this tab? Suggest correction