Oops, an error
Loading. Please wait.

This Means War Bass Tab

by Tank
4 views 1 this week
no commentswrite comment
1 2 3 4 5
3 more votes to show rating
add to favorites
launch autoscroll
font size
0
reset
guitar tuner
Autoscroll
slow
fast
+/-
esc
set tempo
stop
Help us to improve Ultimate-Guitar.com Take our survey!
×
Author
Difficulty
novice
                             TANK - THIS MEANS WAR

Tabbed by: Rottney (reconssuck)
E-mail: reconssuck@hotmail.de

Artist: Tank
Song: This Means War
Album: This Means War (1983)
Bassist: Algy Ward


Tuning: Standard (EADG)



[Intro] x2

G|---------|---------|---------|---------|
D|---------|---------|---------|---------|
A|--2------|---------|---------|--7------|
E|---------|--5------|--3------|---------|

[Intro Continuation] x2

G|--------------------------------|--------------------------------|--------------------------------|
D|--------------------------------|--------------------------------|--------------------------------|
A|--2-2-2-2-2-2-2-2-2-2-2-2-2-2-2-|--------------------------------|--------------------------------|
E|--------------------------------|--5-5-5-5-5-5-5-5-5-5-5-5-5-5-5-|--3-3-3-3-3-3-3-3-3-3-3-3-3-3-3-|


G|--------------------------------|
D|--------------------------------|
A|--------------------------------|
E|--0-0-0-0-0-0-0-0-0-0-0-0-0-0-0-|

[Verse] x7

G|---------------------------------|
D|---------------------------------|
A|-2-2-2-2-2-2-2-2-2-2-2-2-2-2-2-2-|
E|---------------------------------|

[Pre Chorus 1] 

G|-------------------------------|-------------------------------|
D|-------------------------------|-------------------------------|
A|-------------------------------|-------------------------------|
E|-3-3-3-3-3-3-3-3-3-3-3-3-3-3-3-|-2-2-2-2-2-2-2-2-2-2-2-2-2-2-2-|


G|---------------------------------|
D|---------------------------------|
A|-2-2-2-2-2-2-2-2-2-2-2-2-2-2-2-2-|
E|---------------------------------|

[Pre Chorus 2]

G|-------------------------------|-------------------------------|
D|-------------------------------|-------------------------------|
A|-------------------------------|-------------------------------|
E|-3-3-3-3-3-3-3-3-3-3-3-3-3-3-3-|-2-2-2-2-2-2-2-2-2-2-2-2-2-2-2-|


G|---------------------------------|------------|
D|---------------------------------|------------|
A|-0-0-0-0-0-0-0-0-0-0-0-0-0-0-0-0-|-5--5-5-5---|
E|---------------------------------|----------5-|

[Chorus] x2

G|--------------------------------|--------------------------------|--------------------------------|
D|--------------------------------|--------------------------------|--------------------------------|
A|--2-2-2-2-2-2-2-2-2-2-2-2-2-2-2-|--------------------------------|--------------------------------|
E|--------------------------------|--5-5-5-5-5-5-5-5-5-5-5-5-5-5-5-|--3-3-3-3-3-3-3-3-3-3-3-3-3-3-3-|


G|--------------------------------|
D|--------------------------------|
A|--------------------------------|
E|--0-0-0-0-0-0-0-0-0-0-0-0-0-0-0-|

[Verse] x7

G|---------------------------------|
D|---------------------------------|
A|-2-2-2-2-2-2-2-2-2-2-2-2-2-2-2-2-|
E|---------------------------------|


[Pre Chorus 1] 

G|-------------------------------|-------------------------------|
D|-------------------------------|-------------------------------|
A|-------------------------------|-------------------------------|
E|-3-3-3-3-3-3-3-3-3-3-3-3-3-3-3-|-2-2-2-2-2-2-2-2-2-2-2-2-2-2-2-|


G|---------------------------------|
D|---------------------------------|
A|-2-2-2-2-2-2-2-2-2-2-2-2-2-2-2-2-|
E|---------------------------------|

[Pre Chorus 2]

G|-------------------------------|-------------------------------|
D|-------------------------------|-------------------------------|
A|-------------------------------|-------------------------------|
E|-3-3-3-3-3-3-3-3-3-3-3-3-3-3-3-|-2-2-2-2-2-2-2-2-2-2-2-2-2-2-2-|


G|---------------------------------|------------|
D|---------------------------------|------------|
A|-0-0-0-0-0-0-0-0-0-0-0-0-0-0-0-0-|-5--5-5-5---|
E|---------------------------------|----------5-|

[Chorus] x2

G|--------------------------------|--------------------------------|--------------------------------|
D|--------------------------------|--------------------------------|--------------------------------|
A|--2-2-2-2-2-2-2-2-2-2-2-2-2-2-2-|--------------------------------|--------------------------------|
E|--------------------------------|--5-5-5-5-5-5-5-5-5-5-5-5-5-5-5-|--3-3-3-3-3-3-3-3-3-3-3-3-3-3-3-|


G|--------------------------------|
D|--------------------------------|
A|--------------------------------|
E|--0-0-0-0-0-0-0-0-0-0-0-0-0-0-0-|

[Solo Backing] x4


G|--------------------------------|--------------------------------|--------------------------------|
D|--------------------------------|--------------------------------|--------------------------------|
A|--2-2-2-2-2-2-2-2-2-2-2-2-2-2-2-|--------------------------------|--------------------------------|
E|--------------------------------|--5-5-5-5-5-5-5-5-5-5-5-5-5-5-5-|--3-3-3-3-3-3-3-3-3-3-3-3-3-3-3-|


G|--------------------------------|
D|--------------------------------|
A|--------------------------------|
E|--0-0-0-0-0-0-0-0-0-0-0-0-0-0-0-|

[Pre Chorus 1] 

G|-------------------------------|-------------------------------|
D|-------------------------------|-------------------------------|
A|-------------------------------|-------------------------------|
E|-3-3-3-3-3-3-3-3-3-3-3-3-3-3-3-|-2-2-2-2-2-2-2-2-2-2-2-2-2-2-2-|


G|---------------------------------|
D|---------------------------------|
A|-2-2-2-2-2-2-2-2-2-2-2-2-2-2-2-2-|
E|---------------------------------|


[Verse] x4

G|---------------------------------|
D|---------------------------------|
A|-2-2-2-2-2-2-2-2-2-2-2-2-2-2-2-2-|
E|---------------------------------|


[Pre Chorus 1] 

G|-------------------------------|-------------------------------|
D|-------------------------------|-------------------------------|
A|-------------------------------|-------------------------------|
E|-3-3-3-3-3-3-3-3-3-3-3-3-3-3-3-|-2-2-2-2-2-2-2-2-2-2-2-2-2-2-2-|


G|---------------------------------|
D|---------------------------------|
A|-2-2-2-2-2-2-2-2-2-2-2-2-2-2-2-2-|
E|---------------------------------|

[Pre Chorus 2]

G|-------------------------------|-------------------------------|
D|-------------------------------|-------------------------------|
A|-------------------------------|-------------------------------|
E|-3-3-3-3-3-3-3-3-3-3-3-3-3-3-3-|-2-2-2-2-2-2-2-2-2-2-2-2-2-2-2-|


G|---------------------------------|------------|
D|---------------------------------|------------|
A|-0-0-0-0-0-0-0-0-0-0-0-0-0-0-0-0-|-5--5-5-5---|
E|---------------------------------|----------5-|


[Chorus] x6

G|--------------------------------|--------------------------------|--------------------------------|
D|--------------------------------|--------------------------------|--------------------------------|
A|--2-2-2-2-2-2-2-2-2-2-2-2-2-2-2-|--------------------------------|--------------------------------|
E|--------------------------------|--5-5-5-5-5-5-5-5-5-5-5-5-5-5-5-|--3-3-3-3-3-3-3-3-3-3-3-3-3-3-3-|


G|--------------------------------|
D|--------------------------------|
A|--------------------------------|
E|--0-0-0-0-0-0-0-0-0-0-0-0-0-0-0-|

(song fades out]




That's all
Enjoy and Rate.
Suggest correction
Give kudos to tab author, rate the tab!
1 2 3 4 5
comments
print report bad tab
guest
You may want to rate the tab now too:
select rating
Wanna post a correction for this tab? Suggest correction