Oops, an error
Loading. Please wait.

Turn Your Head Around Bass Tab

by Tank
19 views 3 this week
no commentswrite comment
1 2 3 4 5
3 more votes to show rating
add to favorites
launch autoscroll
font size
0
reset
guitar tuner
Autoscroll
slow
fast
+/-
esc
set tempo
stop
Help us to improve Ultimate-Guitar.com Take our survey!
×
Author
Difficulty
novice
                             TANK - TURN YOUR HEAD AROUND

Tabbed by: Rottney (reconssuck)
E-mail: reconssuck@hotmail.de

Artist: Tank
Song: Turn your Head around
Album: Filth Hounds of Hades (1982)
Bassist: Algy Ward


Tuning: Standard (EADG)


[Intro] 

G|-------------------------|----------|-------------------------|---------------|
D|-------------------------|----------|-------------------------|---------------|
A|-------------------------|----------|-------------------------|---------------|
E|-2-2-2-2-2-2-2-2-2-2-2-2-|-0-0-0-0--|-2-2-2-2-2-2-2-2-2-2-2-2-|-5-5-7-7-------|

[Intro End]

G|-------------------------|----------|-------------------------|---------------|
D|-------------------------|----------|-------------------------|---------------|
A|-------------------------|----------|-------------------------|---------------|
E|-2-2-2-2-2-2-2-2-2-2-2-2-|-0-0-0-0--|-2-2-2-2-2-2-2-2-2-2-2-2-|-5-------------|


[Verse] x2

G|-------------------------|----------|-------------------------|---------------|
D|-------------------------|----------|-------------------------|---------------|
A|-------------------------|----------|-------------------------|---------------|
E|-2-2-2-2-2-2-2-2-2-2-2-2-|-0-0-0-0--|-2-2-2-2-2-2-2-2-2-2-2-2-|-5-5-7-7-------|


[Pre-Chorus]

G|-------------------------|----------|-------------------------|---------------|
D|-------------------------|----------|-------------------------|---------------|
A|-------------------------|----7-----|-------------------------|----7----------|
E|-7-7-7-7-7-7-7-7-7-7-7-7-|-5--------|-7-7-7-7-7-7-7-7-7-7-7-7-|-5-------------|

G|-------------------------|----------|-------------------------|---------------|
D|-------------------------|----------|-------------------------|---------------|
A|-------------------------|----9-----|-------------------------|---------------|
E|-9-9-9-9-9-9-9-9-9-9-9-9-|-7--------|-9-9-9-9-9-9-9-9-9-9-9-9-|-5-------------|


[Chorus]

G|-------------------------|----------|-------------------------|---------------|
D|-------------------------|----------|-------------------------|---------------|
A|-------------------------|----------|-5-5-5-5-5-5-5-5-5-5-5-5-|-7-7-7---------|
E|-2-2-2-2-2-2-2-2-2-2-2-2-|-0-0-0-0--|-------------------------|---------------|



G|-------------------------|----------|-------------------------|---------------|------------|
D|-------------------------|----------|-------------------------|---------------|------------|
A|-9-9-9-9-9-9-9-9-9-9-9-9-|-7-7-7-7--|-5-5-5-5-5-5-5-5-5-5-5-5-|---------------|-7-7-7-7-7--|
E|-------------------------|----------|-------------------------|-7-7-7-7-7-7-7-|------------|


[Verse] x3

G|-------------------------|----------|-------------------------|---------------|
D|-------------------------|----------|-------------------------|---------------|
A|-------------------------|----------|-------------------------|---------------|
E|-2-2-2-2-2-2-2-2-2-2-2-2-|-0-0-0-0--|-2-2-2-2-2-2-2-2-2-2-2-2-|-5-5-7-7-------|

[Pre-Chorus Variation]

G|-------------------------|----------|-------------------------|---------------|
D|-------------------------|----------|-------------------------|---------------|
A|-------------------------|----7-----|-------------------------|----7----------|
E|-7-7-7-7-7-7-7-7-7-7-7-7-|-5--------|-7-7-7-7-7-7-7-7-7-7-7-7-|-5-------------|

G|-------------------------|----------|-------------------------|
D|-------------------------|----------|-------------------------|
A|-------------------------|----9-----|-------------------------|
E|-9-9-9-9-9-9-9-9-9-9-9-9-|-7--------|-9-9-9-9-9-9-9-9-9-9-9-9-|

[Bridge]

G|-------------------------|------------------------------------|
D|-------------------------|------------------------------------|
A|-------------------------|------------------------------------|
E|-9--8--7--6--5--6--7--8--|-11--10--9--8--7--8--9--10----------|


[Solo Backing]

G|---------------------------------------------------|------------------------|
D|---------------------------------------------------|------------------------|
A|---------------------------------------------------|------------------------|
E|-2-2-2-2-2-2-2-2-2-2-2-2-2-2-2-2-2-2-2-2-2-2-2-2-2-|-9--8--7--6--5--6--7--8-|


[Verse] x3

G|-------------------------|----------|-------------------------|---------------|
D|-------------------------|----------|-------------------------|---------------|
A|-------------------------|----------|-------------------------|---------------|
E|-2-2-2-2-2-2-2-2-2-2-2-2-|-0-0-0-0--|-2-2-2-2-2-2-2-2-2-2-2-2-|-5-5-7-7-------|

[Pre-Chorus]

G|-------------------------|----------|-------------------------|---------------|
D|-------------------------|----------|-------------------------|---------------|
A|-------------------------|----7-----|-------------------------|----7----------|
E|-7-7-7-7-7-7-7-7-7-7-7-7-|-5--------|-7-7-7-7-7-7-7-7-7-7-7-7-|-5-------------|

G|-------------------------|----------|-------------------------|---------------|
D|-------------------------|----------|-------------------------|---------------|
A|-------------------------|----9-----|-------------------------|---------------|
E|-9-9-9-9-9-9-9-9-9-9-9-9-|-7--------|-9-9-9-9-9-9-9-9-9-9-9-9-|-5-------------|


[Chorus] x4

G|-------------------------|----------|-------------------------|---------------|
D|-------------------------|----------|-------------------------|---------------|
A|-------------------------|----------|-5-5-5-5-5-5-5-5-5-5-5-5-|-7-7-7---------|
E|-2-2-2-2-2-2-2-2-2-2-2-2-|-0-0-0-0--|-------------------------|---------------|



G|-------------------------|----------|-------------------------|---------------|------------|
D|-------------------------|----------|-------------------------|---------------|------------|
A|-9-9-9-9-9-9-9-9-9-9-9-9-|-7-7-7-7--|-5-5-5-5-5-5-5-5-5-5-5-5-|---------------|-7-7-7-7-7--|
E|-------------------------|----------|-------------------------|-7-7-7-7-7-7-7-|------------|

(song quickly fades out after fourth repeat)


That's All
Enjoy and Rate
Suggest correction
Give kudos to tab author, rate the tab!
1 2 3 4 5
comments
print report bad tab
guest
You may want to rate the tab now too:
select rating
Wanna post a correction for this tab? Suggest correction