Oops, an error
Loading. Please wait.

Freibier tab

version 1
version 1

Whole song

Interactive

by Tankard
852 views 1 this week
no commentswrite comment
1 2 3 4 5
3 more votes to show rating
add to favorites
×
Save as Personal and add changes to this tab that will be seen only by you. Learn more ›
×
You can save this tab as Personal to edit and correct it or add notes. All changes will be seen only by you. Learn more »
launch autoscroll
font size
0
reset
how to read this tab
guitar tuner
edit
Autoscroll
slow
fast
+/-
esc
set tempo
stop
Spur 1
      E  S S Q    Q    Q     
E||------------------------|
H||------------------------|
G||------------------------|
D||--7--7-7----------------|
A||--7--7-7----------------|
E||--5--5-5----------------|


  E  S S Q    Q    Q       E  S S Q    Q    Q     
------------------------|------------------------|
------------------------|------------------------|
------------------------|------------------------|
--5--5-5----------------|------------------------|
--3--3-3----------------|--5--5-5----------------|
------------------------|--3--3-3----------------|


  E  S Q    S Q    Q       E  S S Q    Q    Q     
------------------------|------------------------|
------------------------|------------------------|
------------L-----------|------------------------|
------------L-----------|--5---------------------|
--7--7-7----L-3----5----|--3--7-7----------------|
--5--5-5------1----3----|-----5-5----------------|


  E  S S Q    Q    Q       E  S S Q    Q    Q     
------------------------|------------------------|
------------------------|------------------------|
------------------------|------------------------|
--5--7-7----------------|--7--5-5----------------|
--3--5-5----------------|--5--3-3----------------|
------------------------|------------------------|


  E  S Q    S Q    Q     
------------------------|
------------------------|
------------L-----------|
------------L-----------|
--7--7-7----L-3----5----|
--5--5-5------1----3----|


  E  E  E  E  E  S E  E  S  
---------------------------|
---------------------------|
---------------------------|
--5--2--2--2--5--2-2--2--2-|
--3--0--0--0--3--0-0--0--0-|
---------------------------|


  E  S S S S S S E  E  Q     
----------------------------|
----------------------------|
----------------------------|
--5--5-5-5-5-5-5-5--7--7----|
--3--3-3-3-3-3-3-3--5--5----|
----------------------------|


  E  E  E  E  E  S E  E  S  
---------------------------|
---------------------------|
---------------------------|
--7------------------------|
--5--5--5--5--7--5-5--5--5-|
-----3--3--3--5--3-3--3--3-|


  E  S E  E  S Q    Q     
-------------------------|
-------------------------|
-------------------------|
-------------------------|
--7--7-7--7--7-3----5----|
--5--5-5--5--5-1----3----|


  E  E  E  E  E  S E  E  S  
---------------------------|
---------------------------|
---------------------------|
--5--2--2--2--5--2-2--2--2-|
--3--0--0--0--3--0-0--0--0-|
---------------------------|


  E  S S S S S S E  E  Q     
----------------------------|
----------------------------|
----------------------------|
--5--5-5-5-5-5-5-5--7--7----|
--3--3-3-3-3-3-3-3--5--5----|
----------------------------|


  E  E  E  E  E  S E  E  S  
---------------------------|
---------------------------|
---------------------------|
--7------------------------|
--5--5--5--5--7--5-5--5--5-|
-----3--3--3--5--3-3--3--3-|


  E  S E  E  S Q    Q     
-------------------------|
-------------------------|
-------------------------|
-------------------------|
--7--7-7--7--7-3----5----|
--5--5-5--5--5-1----3----|


  E  E  E  E  E  S E  E  S  
---------------------------|
---------------------------|
---------------------------|
--5--2--2--2--5--2-2--2--2-|
--3--0--0--0--3--0-0--0--0-|
---------------------------|


  E  S S S S S S E  E  Q     
----------------------------|
----------------------------|
----------------------------|
--5--5-5-5-5-5-5-5--7--7----|
--3--3-3-3-3-3-3-3--5--5----|
----------------------------|


  E  E  E  E  E  S E  E  S  
---------------------------|
---------------------------|
---------------------------|
--7------------------------|
--5--5--5--5--7--5-5--5--5-|
-----3--3--3--5--3-3--3--3-|


  E  S E  E  S Q    Q     
-------------------------|
-------------------------|
-------------------------|
-------------------------|
--7--7-7--7--7-3----5----|
--5--5-5--5--5-1----3----|


  Q    Q    S S S S S S S S  
----------------------------|
----------------------------|
----------------------------|
----------------------------|
--7----7----7-7-7-7-7-7-7-7-|
--5----5----5-5-5-5-5-5-5-5-|


  Q    E  E  S S S S S S S S  
-----------------------------|
-----------------------------|
-----------------------------|
-----------------------------|
--7----5--4--2-2-2-2-2-2-2-2-|
--5----3--2--0-0-0-0-0-0-0-0-|


  Q    Q    S S S S S S S S  
----------------------------|
----------------------------|
----------------------------|
----------------------------|
--5----5----5-5-5-5-5-5-5-5-|
--3----3----3-3-3-3-3-3-3-3-|


  E  E  Q    E  E  Q     
------------------------|
------------------------|
------------------------|
------------------------|
--7--7-------7--7-------|
--5--5-------5--5-------|


  Q    Q    S S S S S S S S  
----------------------------|
----------------------------|
----------------------------|
----------------------------|
--7----7----7-7-7-7-7-7-7-7-|
--5----5----5-5-5-5-5-5-5-5-|


  Q    E  E  S S S S S S S S  
-----------------------------|
-----------------------------|
-----------------------------|
-----------------------------|
--7----5--4--2-2-2-2-2-2-2-2-|
--5----3--2--0-0-0-0-0-0-0-0-|


  Q    Q    S S S S S S S S  
----------------------------|
----------------------------|
----------------------------|
----------------------------|
--5----5----5-5-5-5-5-5-5-5-|
--3----3----3-3-3-3-3-3-3-3-|


  Q    Q    Q    Q     
----------------------|
----------------------|
----------------------|
----------------------|
--7----5----7----5----|
--5----3----5----3----|


  Q    Q    S S S S S S S S  
----------------------------|
----------------------------|
----------------------------|
----------------------------|
--7----7----7-7-7-7-7-7-7-7-|
--5----5----5-5-5-5-5-5-5-5-|


  Q    E  E  S S S S S S S S  
-----------------------------|
-----------------------------|
-----------------------------|
-----------------------------|
--7----5--4--2-2-2-2-2-2-2-2-|
--5----3--2--0-0-0-0-0-0-0-0-|


  Q    Q    S S S S S S S S  
----------------------------|
----------------------------|
----------------------------|
----------------------------|
--5----5----5-5-5-5-5-5-5-5-|
--3----3----3-3-3-3-3-3-3-3-|


  Q    Q    Q    Q     
----------------------|
----------------------|
----------------------|
----------------------|
--7----5----7----5----|
--5----3----5----3----|


  E  E  E  E  E  S E  E  S  
---------------------------|
---------------------------|
---------------------------|
--5--2--2--2--5--2-2--2--2-|
--3--0--0--0--3--0-0--0--0-|
---------------------------|


  E  S S S S S S E  E  Q     
----------------------------|
----------------------------|
----------------------------|
--5--5-5-5-5-5-5-5--7--7----|
--3--3-3-3-3-3-3-3--5--5----|
----------------------------|


  E  E  E  E  E  S E  E  S  
---------------------------|
---------------------------|
---------------------------|
--7------------------------|
--5--5--5--5--7--5-5--5--5-|
-----3--3--3--5--3-3--3--3-|


  E  S E  E  S Q    Q     
-------------------------|
-------------------------|
-------------------------|
-------------------------|
--7--7-7--7--7-3----5----|
--5--5-5--5--5-1----3----|


  E  E  E  E  E  S E  E  S  
---------------------------|
---------------------------|
---------------------------|
--5--2--2--2--5--2-2--2--2-|
--3--0--0--0--3--0-0--0--0-|
---------------------------|


  E  S S S S S S E  E  Q     
----------------------------|
----------------------------|
----------------------------|
--5--5-5-5-5-5-5-5--7--7----|
--3--3-3-3-3-3-3-3--5--5----|
----------------------------|


  E  E  E  E  E  S E  E  S  
---------------------------|
---------------------------|
---------------------------|
--7------------------------|
--5--5--5--5--7--5-5--5--5-|
-----3--3--3--5--3-3--3--3-|


  E  S E  E  S Q    Q     
-------------------------|
-------------------------|
-------------------------|
-------------------------|
--7--7-7--7--7-3----5----|
--5--5-5--5--5-1----3----|


  E  E  E  E  E  S E  E  S  
---------------------------|
---------------------------|
---------------------------|
--5--2--2--2--5--2-2--2--2-|
--3--0--0--0--3--0-0--0--0-|
---------------------------|


  E  S S S S S S E  E  Q     
----------------------------|
----------------------------|
----------------------------|
--5--5-5-5-5-5-5-5--7--7----|
--3--3-3-3-3-3-3-3--5--5----|
----------------------------|


  E  E  E  E  E  S E  E  S  
---------------------------|
---------------------------|
---------------------------|
--7------------------------|
--5--5--5--5--7--5-5--5--5-|
-----3--3--3--5--3-3--3--3-|


  E  S E  E  S Q    Q     
-------------------------|
-------------------------|
-------------------------|
-------------------------|
--7--7-7--7--7-3----5----|
--5--5-5--5--5-1----3----|


  Q    Q    S S S S S S S S  
----------------------------|
----------------------------|
----------------------------|
----------------------------|
--7----7----7-7-7-7-7-7-7-7-|
--5----5----5-5-5-5-5-5-5-5-|


  Q    E  E  S S S S S S S S  
-----------------------------|
-----------------------------|
-----------------------------|
-----------------------------|
--7----5--4--2-2-2-2-2-2-2-2-|
--5----3--2--0-0-0-0-0-0-0-0-|


  Q    Q    S S S S S S S S  
----------------------------|
----------------------------|
----------------------------|
----------------------------|
--5----5----5-5-5-5-5-5-5-5-|
--3----3----3-3-3-3-3-3-3-3-|


  E  E  Q    E  E  Q     
------------------------|
------------------------|
------------------------|
------------------------|
--7--7-------7--7-------|
--5--5-------5--5-------|


  Q    Q    S S S S S S S S  
----------------------------|
----------------------------|
----------------------------|
----------------------------|
--7----7----7-7-7-7-7-7-7-7-|
--5----5----5-5-5-5-5-5-5-5-|


  Q    E  E  S S S S S S S S  
-----------------------------|
-----------------------------|
-----------------------------|
-----------------------------|
--7----5--4--2-2-2-2-2-2-2-2-|
--5----3--2--0-0-0-0-0-0-0-0-|


  Q    Q    S S S S S S S S  
----------------------------|
----------------------------|
----------------------------|
----------------------------|
--5----5----5-5-5-5-5-5-5-5-|
--3----3----3-3-3-3-3-3-3-3-|


  Q    Q    Q    Q     
----------------------|
----------------------|
----------------------|
----------------------|
--7----5----7----5----|
--5----3----5----3----|


  Q    Q    S S S S S S S S  
----------------------------|
----------------------------|
----------------------------|
----------------------------|
--7----7----7-7-7-7-7-7-7-7-|
--5----5----5-5-5-5-5-5-5-5-|


  Q    E  E  S S S S S S S S  
-----------------------------|
-----------------------------|
-----------------------------|
-----------------------------|
--7----5--4--2-2-2-2-2-2-2-2-|
--5----3--2--0-0-0-0-0-0-0-0-|


  Q    Q    S S S S S S S S  
----------------------------|
----------------------------|
----------------------------|
----------------------------|
--5----5----5-5-5-5-5-5-5-5-|
--3----3----3-3-3-3-3-3-3-3-|


  Q    Q    Q    Q     
----------------------|
----------------------|
----------------------|
----------------------|
--7----5----7----5----|
--5----3----5----3----|


  E  E  E  E  E  S E  E  S  
---------------------------|
---------------------------|
---------------------------|
--5--2--2--2--5--2-2--2--2-|
--3--0--0--0--3--0-0--0--0-|
---------------------------|


  E  S S S S S S E  E  Q     
----------------------------|
----------------------------|
----------------------------|
--5--5-5-5-5-5-5-5--7--7----|
--3--3-3-3-3-3-3-3--5--5----|
----------------------------|


  E  E  E  E  E  S E  E  S  
---------------------------|
---------------------------|
---------------------------|
--7------------------------|
--5--5--5--5--7--5-5--5--5-|
-----3--3--3--5--3-3--3--3-|


  E  S E  E  S Q    Q     
-------------------------|
-------------------------|
-------------------------|
-------------------------|
--7--7-7--7--7-3----5----|
--5--5-5--5--5-1----3----|


  E  E  E  E  E  S E  E  S  
---------------------------|
---------------------------|
---------------------------|
--5--2--2--2--5--2-2--2--2-|
--3--0--0--0--3--0-0--0--0-|
---------------------------|


  E  S S S S S S E  E  Q     
----------------------------|
----------------------------|
----------------------------|
--5--5-5-5-5-5-5-5--7--7----|
--3--3-3-3-3-3-3-3--5--5----|
----------------------------|


  E  E  E  E  E  S E  E  S  
---------------------------|
---------------------------|
---------------------------|
--7------------------------|
--5--5--5--5--7--5-5--5--5-|
-----3--3--3--5--3-3--3--3-|


  E  S E  E  S Q    Q     
-------------------------|
-------------------------|
-------------------------|
-------------------------|
--7--7-7--7--7-3----5----|
--5--5-5--5--5-1----3----|


  E  E  E  E  E  S E  E  S  
---------------------------|
---------------------------|
---------------------------|
--5--2--2--2--5--2-2--2--2-|
--3--0--0--0--3--0-0--0--0-|
---------------------------|


  E  S S S S S S E  E  Q     
----------------------------|
----------------------------|
----------------------------|
--5--5-5-5-5-5-5-5--7--7----|
--3--3-3-3-3-3-3-3--5--5----|
----------------------------|


  E  E  E  E  E  S E  E  S  
---------------------------|
---------------------------|
---------------------------|
--7------------------------|
--5--5--5--5--7--5-5--5--5-|
-----3--3--3--5--3-3--3--3-|


  E  S E  E  S Q    Q     
-------------------------|
-------------------------|
-------------------------|
-------------------------|
--7--7-7--7--7-3----5----|
--5--5-5--5--5-1----3----|


  Q    Q    S S S S S S S S  
----------------------------|
----------------------------|
----------------------------|
----------------------------|
--7----7----7-7-7-7-7-7-7-7-|
--5----5----5-5-5-5-5-5-5-5-|


  Q    E  E  S S S S S S S S  
-----------------------------|
-----------------------------|
-----------------------------|
-----------------------------|
--7----5--4--2-2-2-2-2-2-2-2-|
--5----3--2--0-0-0-0-0-0-0-0-|


  Q    Q    S S S S S S S S  
----------------------------|
----------------------------|
----------------------------|
----------------------------|
--5----5----5-5-5-5-5-5-5-5-|
--3----3----3-3-3-3-3-3-3-3-|


  E  E  Q    E  E  Q     
------------------------|
------------------------|
------------------------|
------------------------|
--7--7-------7--7-------|
--5--5-------5--5-------|


  Q    Q    S S S S S S S S  
----------------------------|
----------------------------|
----------------------------|
----------------------------|
--7----7----7-7-7-7-7-7-7-7-|
--5----5----5-5-5-5-5-5-5-5-|


  Q    E  E  S S S S S S S S  
-----------------------------|
-----------------------------|
-----------------------------|
-----------------------------|
--7----5--4--2-2-2-2-2-2-2-2-|
--5----3--2--0-0-0-0-0-0-0-0-|


  Q    Q    S S S S S S S S  
----------------------------|
----------------------------|
----------------------------|
----------------------------|
--5----5----5-5-5-5-5-5-5-5-|
--3----3----3-3-3-3-3-3-3-3-|


  Q    Q    Q    Q     
----------------------|
----------------------|
----------------------|
----------------------|
--7----5----7----5----|
--5----3----5----3----|


  Q    Q    S S S S S S S S  
----------------------------|
----------------------------|
----------------------------|
----------------------------|
--7----7----7-7-7-7-7-7-7-7-|
--5----5----5-5-5-5-5-5-5-5-|


  Q    E  E  S S S S S S S S  
-----------------------------|
-----------------------------|
-----------------------------|
-----------------------------|
--7----5--4--2-2-2-2-2-2-2-2-|
--5----3--2--0-0-0-0-0-0-0-0-|


  Q    Q    S S S S S S S S  
----------------------------|
----------------------------|
----------------------------|
----------------------------|
--5----5----5-5-5-5-5-5-5-5-|
--3----3----3-3-3-3-3-3-3-3-|


  Q    Q    Q    Q      
----------------------||
----------------------||
----------------------||
----------------------||
--7----5----7----5----||
--5----3----5----3----||




Duration Legend
---------------
W - whole
H - half
Q - quarter
E - 8th
S - 16th
T - 32nd
X - 64th
. - note dotted
|-n-|  - n-tuplets


Tablature Legend
----------------
L - tied note
x - dead note
g - grace note
(n) - ghost note
> - accentuded note
NH - natural harmonic
AH - artificial harmonic
TH - tapped harmonic
SH - semi harmonic
PH - pitch harmonic
h - hammer on
p - pull off
b - bend
br - bendRelease
pb - preBend
pbr - preBendRelease
brb - bendReleaseBend
\n/ - tremolo bar dip
\n - tremolo bar dive
-/n - tremolo bar Release up
/n\ - tremolo bar inverted dip
/n - tremolo bar return
-\n - tremolo bar Release down
S - shift slide
s - legato slide
/ -  slide into from below or out of upwards
\ -  slide into from above or out of downwards
~ - vibrato
W - wide vibrato
tr - trill
TP - tremolo picking
T - tapping
S - slap
P - pop
< - fade in
^ - brush up
v - brush down

            
            
Suggest correction
Creating personal tab
Creating personal tab
You can edit any tab online and save it as your Personal.

You can edit, replace or remove any tab part or add personal notes – all changes will be seen only by you.

Personal tabs can be accessed anytime from any device, even offline.
Learn more »
Give kudos to tab author, rate the tab!
1 2 3 4 5
comments
print report bad tab
guest
You may want to rate the tab now too:
select rating
Wanna post a correction for this tab? Suggest correction