Oops, an error
Loading. Please wait.

Tame Tab

22 views 1 this week
no commentswrite comment
1 2 3 4 5
3 more votes to show rating
add to favorites
launch autoscroll
font size
0
reset
how to read this tab
guitar tuner
Autoscroll
slow
fast
+/-
esc
set tempo
stop
Help us to improve Ultimate-Guitar.com Take our survey!
×
Para esta cancion necesita una  bunea  pedalera para estos  efectos
Edto es lo que hace la primera  guitarra:

-----------------------10-- 10-10-10--------------
--3---3-3-3---5-5-5----9-----9--9--9----------7-7-7
--4---4-4-4---6-6-6---------------------------8-8-8
---------------------------------------------------
---------------------------------------------------
---------------------------------------------------

-----------------------10-- 10-10-10--------------
--3---3-3-3---5-5-5----9-----9--9--9----------7-7-7
--4---4-4-4---6-6-6---------------------------8-8-8
---------------------------------------------------
---------------------------------------------------
---------------------------------------------------

luego se repite lo mismo 2 veces mas pero la  distorcion de la
segunda guitarra  cambia

la segunda  solo hace  esto  pero con la  vitela de arriba abajo y   
bastante suave el  sonido


---------------------------------------------------
---------------------------------------------------
--3-3-3-3-3-3-3-3-3-3-3-3-3-3-3-3-3-3-3-3-3-3-3-3-3
---------------------------------------------------
---------------------------------------------------
---------------------------------------------------

ya va a dar el  chavo , y yo aqui sentado en el avion
esperando el trago , que la  asafata  me ofrcio
vino el`presidente conla primera dama , no era la misma de la televicion

--------------------------------------------------------------------------------
10-12-10----12-10-12----------------------10-12-10---10-12-10-------------------
--------------------11-12-11-9-7------------------------------11-12-11-9-7-9-11-
--------------------------------------------------------------------------------
--------------------------------------------------------------------------------
--------------------------------------------------------------------------------

mi papa es es ministro de bien estar  social 
de donde crees que saque el  dinero para viajar
señor presidente , digame toda la verdad
que va a hacer con  todo lo que acaba de robar

--------------------------------------------------------------------------------
10-12-10----12-10-12----------------------10-12-10---10-12-10-------------------
--------------------11-12-11-9-7------------------------------11-12-11-9-7-9-11-
--------------------------------------------------------------------------------
--------------------------------------------------------------------------------
--------------------------------------------------------------------------------
-----------------------10-- 10-10-10--------------
--3---3-3-3---5-5-5----9-----9--9--9----------7-7-7
--4---4-4-4---6-6-6---------------------------8-8-8
---------------------------------------------------
---------------------------------------------------
---------------------------------------------------

Bueno  eso es casi todo
Tanque y el punk son lo mejor
Suggest correction
Give kudos to tab author, rate the tab!
1 2 3 4 5
comments
print report bad tab
guest
You may want to rate the tab now too:
select rating
Wanna post a correction for this tab? Suggest correction