Oops, an error
Loading. Please wait.

Down And Out Tab

version 2
version 2

Whole song

by Tantric
4,134 views 1 this week
2 commentsread comments
1 2 3 4 5
x 5
add to favorites
launch autoscroll
font size
0
reset
how to read this tab
guitar tuner
×
Best way to learn
"Down And Out"
Autoscroll
slow
fast
+/-
esc
set tempo
stop
This is my first tab and when i play it it sounds exact and great, it is an awesome song 
is easy to play, so enjoy!

Tuning: Standard

Intro/Verses, during violin part LOTS OF DISTORTION!!!
e|----------------------------------------------|
B|----------------------------------------------|
G|----------------------------------------------|
D|----------------------------------------------|
A|----------------------------------------------|
E|-2-4-2-5-4-2-------------2-4-2-5-4-2----------| times 4

after that the little riff is


 E|-2-4-2-5-4-2-777-5-4---------2-4-2-5-4-2----------2-4-2-5-4-2----


Chorus NO DISTORTION!!!
e|---------------------------------------------------------------------------|
B|---------------------------------------------------------------------------|
G|---------------------------------------------------------------------------|
D|--4-4-4-4-4-4--7-7-7-7-7-7--11-11-11-11-11--10-10-10-10--------------------|
A|--4-4-4-4-4-4--7-7-7-7-7-7--11-11-11-11-11--10-10-10-10--------------------|
E|--2-2-2-2-2-2--5-5-5-5-5-5--9--9--9--9--9---8--8--8--8---------------------|


The part when he yells Ohhhhhhhhhh!
is just the chorus quicker, faster.

Just listen to the song to figure out the strumming so it comes close.
That's IT!!


HAVE FUN PLAYING THIS SONG!!! PLEASE RATE!!!!
Suggest correction
comments
print report bad tab
2 comments total.
0 reply
Metallica_Man55 392 Feb 18, 2010 12:10 PM

wrong tuning, and even if it was the right tuning, they're the wrong frets anyway. the tuning is drop Db (some people call it drop C#)

0 reply
Soulstealer7374 10 Feb 21, 2010 08:25 PM

on the intro make it power chords and it will be basically right

|------------------------------------------|
|------------------------------------------|
|------------------------------------------|
|-2-4-2-5-4-2--------2-4-2-5-4-2--7-7-7----|
|-2-4-2-5-4-2--------2-4-2-5-4-2--7-7-7----|
|-2-4-2-5-4-2--------2-4-2-5-4-2--7-7-7----|

But the chorus is still wrong

guest
You may want to rate the tab now too:
select rating
Wanna post a correction for this tab? Suggest correction