Oops, an error
Loading. Please wait.

Full Tab

1,901 views 1 this week
1 commentread comment
1 2 3 4 5
please rate
add to favorites
launch autoscroll
font size
0
reset
how to read this tab
guitar tuner
Autoscroll
slow
fast
+/-
esc
set tempo
stop
Help us to improve Ultimate-Guitar.com Take our survey!
×
TANTRIC (Full Album)

Transcribed by: Rob "Fetus" Torrey
Email: fetusinchains@aol.com

01.Breakdown
02.Live Your Life (Down)
03.I Don't Care
04.Paranoid
05.Revillusion
06.Mourning
07.Astounded
08.I'll Stay Here
09.Frequency
10.All to Myself
11.Hate Me
12.Inside Your Head
13.Cliche
14.Junkyard
15.Foresight (not complete)

**************************************************************************
**************************************************************************

TANTRIC
Track 01-Breakdown

Transcribed by: Rob "Fetus" Torrey
Email: fetusinchains@aol.com

Half Step Down
D-A-D-G-A-D

Intro (riff 1)
D-------------------------------------------------------|
A-------------------------------------------------------|
G----2p0---4p0---5p0---4p0---2---2p0--4p0--2p0--4p0--2--|
D-------------------------------------------------------|
A--0-----0-----0-----0----0---------0----0----0----0----|
D------------------------------3------------------------|
Intro (riff 2)
D-------------------------------------------------------|
A-------------------------------------------------------|
G----2p0---4p0---5p0---7p0---9---2p0--4p0--2p0--4p0--2--|
D-------------------------------------------------------|
A--0-----0-----0-----0----0---------0----0----0----0----|
D------------------------------3------------------------|

Verse=(riff 1)x3 + (riff 2)x1

Chorus
D--0-0-0--0-0-0--0-0-0--0-0-0--0-0-0--------------------|
A--0-0-0--0-0-0--0-0-0--0-0-0--0-0-0--------------------|
G--0-0-0--0-0-0--0-0-0--0-0-0--0-0-0--------------------|
D--7-3-5--7-3-5--7-5-3--7-3-5--7-3-5--5-5-5-5-----------|
A--7-3-5--7-3-5--7-5-3--7-3-5--7-3-5--5-5-5-5-----------|
D--7-3-5--7-3-5--7-5-3--7-3-5--7-3-5--5-5-5-5-----------|

Bridge
D------0------0------0----------------------------------|
A------0------0------0----------------------------------|
G------0------0------0----------------------------------|
D------0------0------0----------------------------------|x6
A----7------3------5------------------------------------|
D--7------3------5--------------------------------------|

Intro (riff 1)
Intro (riff 2)
Intro (riff 1)
Intro (riff 2)
Verse
Chorus
Verse
Chorus
Bridge
Chorus x2

**************************************************************************
**************************************************************************

TANTRIC
Track 02-Live Your Life (Down)

Transcribed by: Rob "Fetus" Torrey
Email: fetusinchains@aol.com

Half Step Down
D-A-D-G-B-D

Intro/Verse
D-------------------------------------------------------|
B-------------------------------------------------------|
G-------------------------------------------------------|
D----2--4---5---7----0--5---4---0-----------------------|
A---2---------------0-----------------------------------|
D--2------2---0----0------0---0-------------------------|

Fill
D-------------------------------------------------------|
B-------------------------------------------------------|
G-------------------------------------------------------|
D--2--0-0-0---------------------------------------------|
A--2--0-0-0---------------------------------------------|
D--2--0-0-0---------------------------------------------|

Chorus
D-------------------------------------------------------|
B-------------------------------------------------------|
G-------------------------------------------------------|
D--2-2--5-5--7-7--10-12----2-2--5-5--3-3-3-3-3-3-3-3----|
A--2-2--5-5--7-7--10-12----2-2--5-5--3-3-3-3-3-3-3-3----|
D--2-2--5-5--7-7--10-12----2-2--5-5--3-3-3-3-3-3-3-3----|

D-------------------------------------------------------|
B-------------------------------------------------------|
G-------------------------------------------------------|
D--2-2--5-5--7-7--10-12----2-2--5-5--3-3----------------|
A--2-2--5-5--7-7--10-12----2-2--5-5--3-3----------------|
D--2-2--5-5--7-7--10-12----2-2--5-5--3-3----------------|

Bridge
D--------------------------------------------------------|
B--------------------------------------------------------|
G--------------------------------------------------------|
D--2-0-2-7-5--8-7----7-5-2-0--2-0-2-7-5--8-7--8-7-5-2-0--|x3
A--2-0-2-7-5--8-7----7-5-2-0--2-0-2-7-5--8-7--8-7-5-2-0--|
D--2-0-2-7-5--8-7----7-5-2-0--2-0-2-7-5--8-7--8-7-5-2-0--|

D----------------------------------------------------|
B----------------------------------------------------|
G----------------------------------------------------|
D--2-0-2-7-5--8-7----7-5-2-0--2-0-2-7-5--8-7--3-3-5--|
A--2-0-2-7-5--8-7----7-5-2-0--2-0-2-7-5--8-7--3-3-5--|
D--2-0-2-7-5--8-7----7-5-2-0--2-0-2-7-5--8-7--3-3-5--|

Intro/Verse x10
Fill
Verse x3
Chorus
Verse x10
Fill
Verse x3
Chorus
Bridge x2
Verse x13

**************************************************************************
**************************************************************************

TANTRIC
Track 03-I Don't Care

Transcribed by: Rob "Fetus" Torrey
Email: fetusinchains@aol.com

Half Step Down
D-A-D-G-C-E

Intro/Verse
E--0--0-------------------------------|
C--0--0-------------------------------|
G--0--0-------------------------------|
D--7--3-------------------------------|x4
A--7--3-------------------------------|
D--7--3-------------------------------|

Pre-Chorus
E--0--0-------------------------------|
C--0--0-------------------------------|
G--0--0-------------------------------|
D--5--3-------------------------------|x4
A--5--3-------------------------------|
D--5--3-------------------------------|

Chorus
E--0--0-------------------------------|
C--0--0-------------------------------|
G--5--0-------------------------------|
D--5--3-------------------------------|x4
A--3--3-------------------------------|
D-----3-------------------------------|

Interlude=Verse

Bridge
E-------------------------------------|
C-------------------------------------|
G-------------------------------------|
D--7-9-3-0-3-5-7-9-3-0-3-5-6-7--------|
A--7-9-3-0-3-5-7-9-3-0-3-5-6-7--------|
D--7-9-3-0-3-5-7-9-3-0-3-5-6-7--------|

Intro/Verse (pause)
Verse
Pre-Chorus (pause)
Chorus
Verse 1/2 (pause)
Verse
Pre-Chorus
Chorus
Interlude
Bridge
Chorus

**************************************************************************
**************************************************************************

TANTRIC
Track 04-Paranoid

Transcribed by: Rob "Fetus" Torrey
Email: fetusinchains@aol.com

Half Step Down
E-A-D-G-B-D

Intro/Verse
D--0--0--0----|
B--0--0--0----|
G--0--9--7----|x10
D--2--9--7----|
A--2--7--5----|
E--0----------|

Pre-Chorus
D--0--0--------------------|
B--0--0--------------------|
G--5--7--------------------|
D--5--7---------5----------|
A--3--5-------3---0--------|
E-----------5-------0------|

Chorus
D---------------------------|
B---------------------------|
G--------5-7----------------|
D--2-5-7-5-7-2-5-7----5-----|x2
A--2-5-7-3-5-2-5-7---3-0----|
E--0-3-5-----0-3-5--5---0---|

Intro
Pre-Chorus
Chorus
Verse
Pre-Chorus
Chorus x2
Bridge
Chorus x2

**************************************************************************
**************************************************************************

TANTRIC
Track 05-Revillusion

Transcribed by: Rob "Fetus" Torrey
Email: fetusinchains@aol.com

Half Step Down
D-A-D-G-B-E

Intro/Verse
E-----------------------------------------------------------|
B-----------------------------------------------------------|
G-----------------------------------------------------------|
D----0-------0-----0-------------0-------0----0-------------|x4
A------0---3---------0-----0-------0---3--------0--3-0------|
D--0-----3-------0-----3-5-----0-----3------0----------3-0--|

Fill
E-------------------------------------|
B-------------------------------------|
G-------------------------------------|
D-----0-------------------------------|
A-------3--0--------------------------|
D--3----------5-----------------------|

Chorus
E---------------------------|
B---------------------------|
G---------------------------|
D--3-0-3-0----0----0--------|x4
A--3-0-3---0----0----0------|
D--3-0-3-----3----3----3----|

Intro
Fill
Verse
Fill
Chorus
Verse
Fill
Chorus
Bridge
Verse
Chorus

**************************************************************************
**************************************************************************

TANTRIC
Track 06-Mourning

Transcribed by: Rob "Fetus" Torrey
Email: fetusinchains@aol.com

Half Step Down
E-A-D-Gb-B-E

Intro (Down Pick Through Intro With These Chords)
E--0--0--0--0--0---0--0--0-----------------------|
B--0--0--0--0--0---0--0--0-----------------------|
Gb-0--0--0--0--0---0--0--0-----------------------|
D--9--7--2--5--7---9--7--2-----------------------|
A--9--7--2--5--7---9--7--2-----------------------|
E--7--5--0--3--5---7--5--0-----------------------|

Verse
E--0--0------------------------|
B--0--0------------------------|
Gb-5--0------------------------|
D--0--11-----------------------|x4
A--5--9------------------------|
E--3--7------------------------|

Pre-Chorus
E--0--0-------------------------------|
B--0--0-------------------------------|
Gb-7--5-------------------------------|
D--7--5-------------------------------|
A--7--5-------------------------------|
E--5--3-------------------------------|

Chorus
E--0--0--0--0-------------------------|
B--0--0--0--0-------------------------|
Gb-0--0--0--0-------------------------|
D--9--7--2--5-------------------------|x4
A--9--7--2--5-------------------------|
E--7--5--0--3-------------------------|

Bridge
E--0--0--0--0--0----------------------|
B--0--0--0--0--0----------------------|
Gb-0--0--0--0--0----------------------|
D--9--7--2--5--7----------------------|
A--9--7--2--5--7----------------------|
E--7--5--0--3--5----------------------|

Intro
Verse
Pre-Chorus (pause)
Chorus
Intro
Verse
Pre-Chorus
Chorus
Bridge
Chorus

**************************************************************************
**************************************************************************

TANTRIC
Track 07-Astounded

Transcribed by: Rob "Fetus" Torrey
Email: fetusinchains@aol.com

Half Step Down
D-A-D-G-B-E

Intro/Verse
E------------------------------------------------------------|
B----------------------------------------------------------3-|
G--------0-0--------0-0------------------------------2p0-----|
D--0h2--------0h2--------0h2----------00-------00--------0---|
A------0----------0----------0------3--------0---------------|
D-------------------------------0h3------3h5-----------------|

Pre-Chorus
E--0--0--0-------------------------|
B--0--0--0-------------------------|
G--2--0--0-------------------------|
D--2--0--0-------------------------|x4
A--0--3--5-------------------------|
D--0--3--5-------------------------|

Chorus
E----------------------------------|
B----------------------------------|
G--9--7--5--7----------------------|
D--7--5--3--5----------------------|x4
A--7--5--3--5----------------------|
D--7--5--3--5----------------------|

Bridge=Chorus

End Chorus
E----------------------------------  ----------------|
B----------------------------------  ----------------|
G--9--7--5--7----------------------  ---5--7--5--7---|
D--7--5--3--5----------------------x8---3--5--3--5---|
A--7--5--3--5----------------------  ---3--5--3--5---|
D--7--5--3--5----------------------  ---3--5--3--5---|

Intro/Verse x13
Pre-Chorus
Chorus
Verse x6
Pre-Chorus
Chorus
Bridge
End Chorus
Verse x4

**************************************************************************
**************************************************************************

TANTRIC
Track 08-I'll Stay Here

Transcribed by: Rob "Fetus" Torrey
Email: fetusinchains@aol.com

Half Step Down
D-A-D-Gb-A-D Tuning


Intro
D---0-0-0-0-0---0-0-0-0-0---0-0-0-0-0-0-0-0---0-0-0-0-0---0-0-0-0-|
A---0-0-0-0-0---0-0-0-0-0---0-0-0-0-0-0-0-0---0-0-0-0-0---0-0-0-0-|
Gb--2-2-2-3-3---2-2-2-3-3---2-2-2-3-5-3-2-3---2-2-2-3-3---2-2-2-3-|
D---0-0-0-0-4---0-0-0-0-4---0-0-0-0-0-0-0-2---0-0-0-0-4---0-0-0-0-|
A-----------------------------------------------------------------|
D-----------------------------------------------------------------|

D---0--0--0--0--0--0--0--0--0-------------------------------------|
A---0--0--0--0--0--0--0--0--0-------------------------------------|
Gb--0--0--0--0--0--0--0--0--0-------------------------------------|
D---0--7--5--4--5--0--7--5--4--0--2--3-3-3------------------------|
A---0--5--3--2--3--0--5--3--2--0--2--3-3-3------------------------|
D---0--------------0-----------0--2--3-3-3------------------------|

Verse
D---0--0--0--0--0-------------------------------------------------|
A---0--0--0--0--0-------------------------------------------------|
Gb--0--0--0--0--0-------------------------------------------------|
D---0--7--5--4--5-------------------------------------------------| x4
A---0--5--3--2--3-------------------------------------------------|
D---0-------------------------------------------------------------|


Pre-Chorus
D-------------------------------------------0---------------------|
A-------------------------------------------0---------------------|
Gb------------------------------------------0---------------------|
D---3-3--3-3--3-3--3-3--2-2--2-2--2-3-3-3-2-0---------------------|
A---3-3--3-3--3-3--3-3--2-2--2-2--2-3-3-3-2-0---------------------|
D---3-3--3-3--3-3--3-3--2-2--2-2--2-3-3-3-2-0---------------------|

Chorus
D---0--0--0--0--0--0--0--0--0-------------------------------------|
A---0--0--0--0--0--0--0--0--0-------------------------------------|
Gb--0--0--0--0--0--0--0--0--0-------------------------------------|
D---0--7--5--4--5--0--7--5--4--0--2--3-3-3------------------------|
A---0--5--3--2--3--0--5--3--2--0--2--3-3-3------------------------|
D---0--------------0-----------0--2--3-3-3------------------------|

Break
D-----------------------------------------------------------------|
A-----------------------------------------------------------------|
Gb----------------------------------------------------------------|
D-----------------------------------------------------------------|x6
A-----3-3-3--2-3-5-3 2--------------------------------------------|
D---0-------------------5-3-0-3-3-3-3-2-3-5-3-2-0-3-3-------------|


Intro
Verse
Pre-Chorus
Chorus
Verse
Pre-Chorus
Chorus x2
Intro
Break
Pre-Chorus
Chorus x6

**************************************************************************
**************************************************************************

TANTRIC
Track 09-Frequency

Transcribed by: Rob "Fetus" Torrey
Email: fetusinchains@aol.com

Half Step Down
D-A-D-G-B-E

Intro (distortion)
E-----------------------------------|
B---------5-------------------------|
G-----------------------------------|
D--2--2-------0-0--2-2--7--2--3--5--|x4
A--2--2-------0-0--2-2--7--2--3--5--|
D--2--2-------0-0--2-2--7--2--3--5--|

Verse (distortion)
E-----------------------------------|
B-----------------------------------|
G-----------------------------------|
D--2--2-------0--2--2----2--3--5----|x4
A--2--2-------0--2--2----2--3--5----|
D--2--2-------0--2--2----2--3--5----|

Pre-Chorus (Distortion)
E-----------------------|
B-----------------------|
G-----------------------|
D--7----5----7----0-----|x4
A--7----5----7----0-----|
D--7----5----7----0-----|

Fill (Clean)
E----------------------------|
B----------------------------|
G--7-(4)h5--------0-------0--|
D------------0h2-----0h2-----|
A----------------------------|
D----------------------------|

Chorus (Clean)
E------------------------------|
B-------3-0h3p0---------8--7---|
G----2----------2------7-------|x4
D---0-0--------------0----0----|
A--0----------------0----------|
D------------------------------|

Intro
Verse
Intro
Pre-Chorus
Fill
Chorus
Intro
Verse
Intro
Pre-Chorus
Fill
Chorus x2
Bridge
Pre-Chorus
Fill
Chorus
Intro

**************************************************************************
**************************************************************************

TANTRIC
Track 10-All To Myself

Transcribed by: Rob "Fetus" Torrey
Email: fetusinchains@aol.com

Half Step Down
D-A-D-G-B-E

Intro
E---------------------------|
B---------------------------|
G---------------------------|
D---------------------------|
A--5/--5/--0-5-5-3-5-0-8----|
D---------------------------|

Chorus (Pick these chords)
E---------|
B--5------|
G--7--5---|
D--7--5---|x4
A--5--3---|
D---------|

Verse
E--------------------------|
B-----5-6-5----------------|
G----7---------------------|
D---7-------0-0-0-0-0-0----|
A--5--------3-5-3-5-3-5----|
D-----------0-0-0-0-0-0----|

Pre-Chorus (distortion)
E--------------------------|
B--------------------------|
G--------------------------|
D--0-0--0-3--5-------------|x4
A--0-0--0-3--5-------------|
D--0-0--0-3--5-------------|

Intro x2
Chorus
Verse x8
Pre-Chorus
Chorus
Verse x8
Pre-Chorus
Chorus
Intro x1
Verse x8 & Solo
Pre-Chorus
Chorus

**************************************************************************
**************************************************************************

TANTRIC
Track 11-Hate Me

Transcribed by: Rob "Fetus" Torrey
Email: fetusinchains@aol.com

Half Step Down
E-A-D-G-B-E

Intro
E------7-7------7-7------7-7------0-0------0-0---0----|
B------8-8------8-8------8-8------0-0------0-0---0----|
G------7-7------7-7------7-7------5-5------5-5---7----|
D--7h9-9-9--7h9-9-9--7h9-9-9------5-5------5-5---7----|x4
A-----------------------------0h3-3-3--0h3-3-3---5----|
E-----------------------------------------------------|

Verse (strum thses chords)
E--7---0---0------------------|
B--8---0---0------------------|
G--7---5---7------------------|
D--9---5---7------------------|
A------3---5------------------|
E-----------------------------|

Chorus
E-----------------------------|
B-----------------------------|
G----------5------------------|
D--2---7---5---7--------------|x4
A--2---7---3---7--------------|
E--0---5-------5--------------|

Bridge
E--0--------------------------|
B--0--------------------------|
G--0--------------------------|
D--2----7--5--4---------------|
A--2----7--5--4---------------|
E--0----5--3--2---------------|

Intro
Verse x10
Chorus
Verse x6
Chorus
Bridge
Chorus x2

**************************************************************************
**************************************************************************

TANTRIC
Track 12-Inside Your Head

Transcribed by: Rob "Fetus" Torrey
Email: fetusinchains@aol.com

Half Step Down
E-A-D-G-B-E

Intro/Verse
E-------------------------------------------------------|
B----------0---------------0----------------------------|
G------7-----7---7-----------7---7----------------------|
D-------------------5-----------------------------------|
A----7---7-----7------7--------7------------------------|
E--0--------------------0-------------------------------|

E-------------------------------------------------------|
B----------0---------------0----------------------------|
G------6-----6---6-----------6---6----------------------|
D-------------------5-----------------------------------|
A----7---7-----7------7--------7------------------------|
E--0--------------------0-------------------------------|

Fill
E-------------------------------------------------------|
B-------------------------------------------------------|
G-------------------------------------------------------|
D----------0-2-4-5--------------------------------------|
A------0-2----------------------------------------------|
E--0-3--------------------------------------------------|

Chorus
E-------------------------------------------------------|
B----------0--------------------------------0-----------|
G--------7---7--------------0-----------------0---------|
D------9-------9----------0---0----------7--------------|x3
A----0-----------0------7-------7------7----------------|
E--0---------------0--8-----------8--5------------------|

Bridge=Verse

End Chorus
E-------------------------------------------------------|
B-------------------------------------------------------|
G---------------5-5-------------------------------------|
D--2-2---2---2--5-5--7-7--------------------------------|
A--2-2---2---2--3-3--7-7--------------------------------|
E--0-0---0---0-------5-5--------------------------------|

Intro/Verse x6
Fill
Chorus
Verse x5
Fill
Chorus x2
Bridge
Chorus x4
End Chorus x16

**************************************************************************
**************************************************************************

TANTRIC
Track 13-CLICHE

Transcribed by: Rob "Fetus" Torrey
Email: fetusinchains@aol.com

Half Step Down
D-A-D-G-B-E Tuning

Intro/Verse
E---0-------------------------------------|
B---0-------------------------------------|
G---9-------------------------------------|
D---9-------------------------------------|
A---7-------------------------------------|
D-----------------------------------------|

Pre-Chorus
E---0--0--0-------------------------------|
B---0--0--0-------------------------------|
G---1--4--2-------------------------------|
D---2--4--2-------------------------------|
A---2--2--0-------------------------------|
D---2-------------------------------------|

Chorus
E---0--0--0--0--0--0--0-------------------|
B---0--0--0--0--0--0--0-------------------|
G---6--2--6--2--1--4--2-------------------|
D---6--2--6--2--2--4--2-------------------|
A---4--0--4--0--2--2--0-------------------|
D---------------2-------------------------|

Break
E--0--------7-------------------------------------|
B--0----5-7---------------------------------------|
G--9----------------------------------------------|
D--9-----------6-6-6-6-7-6-4-4-4-4\6-6-6-6-7-6-4--|
A--7----------------------------------------------|
D-------------------------------------------------|

Intro
Pre-Chorus
Verse
Pre-Chorus
Chorus
Verse
Pre-Chorus
Verse
Pre-Chorus
Chorus x2
Break & Solo
Chorus x2

**************************************************************************
**************************************************************************

TANTRIC
Unreleased-Junkyard

Transcribed by: Rob "Fetus" Torrey
Email: fetusinchains@aol.com

Half Step Down
D-A-D-G-B-E

Intro/Verse (Part A)
E--------------------------------------------|
B--------------------------------------------|
G--------------------------------------------|
D------0-----0-----0-----0--3p0--------------|
A----5-----5-----5-----5---------3-----------|
D--5-----8-----3-----3-----------------------|

Intro (Part B)
E--------------------------------------------|
B--------------------------------------------|
G--------------------------------------------|
D------0-----0-----0-----0--3p0---7----------|
A----5-----5-----5-----5---------------------|
D--5-----8-----3-----3-----------------------|

Fill
E--------------------------------------------|
B--------------------------------------------|
G--------7--5-----------0--------5--7--------|
D------5----------3---3--------5-------------|
A----5----------5---5--------5---------------|
D--5----------3------------5-----------------|

Chorus
E--------------------------------------------|
B--------------------------------------------|
G--------------------------------------------|
D--5--8--10--0-0-----------------------------|
A--5--8--10--0-0-----------------------------|
D--5--8--10--0-0-----------------------------|
             pm..

Intro A-B-A-B-A-B-A-B
Verse A x4
Pre-Chorus A-B-A-B
Fill
Chorus x4
Intro A-B-A-B
Verse A x4
Pre-Chorus A-B-A-B
Fill
Chorus x8
Intro A-B-A-B
Verse A x4

**************************************************************************
**************************************************************************

TANTRIC
Unreleased-Foresight

Transcribed by: Rob "Fetus" Torrey
Email: fetusinchains@aol.com

Half Step Down
D-A-D-G-B-E

E----------------------------------------|
B----------------------------------------|
G----------------------------------------|
D------(5)-5-----------------------------|
A--5-5-------0-3p0-5---------------------|
D----------------------------------------|

E----------------------------------------|
B----------------------------------------|
G-------7---10---------------------------|
D-------7---10---------------------------|
A-------5---8----------------------------|
D--0-0-----------------------------------|

I can't figure the rest of this song out...if you can email me and tell me the corrections
Suggest correction
What's this?
You can suggest a correction to this tab. Community and Mods will review your correction and vote to approve or reject it.
comments
We did not receive enough feedback on this tab! Please rate:
print report bad tab
1 2 3 4 5
1 comment total.
0 reply
xartxistx 31 wrote on April 25 2007, 08:17 am

Well done, this is fantastic 5/5!

guest
You may want to rate the tab now too:
select rating
Please do not post tabs as comments. Select "correction" instead!