Oops, an error
Loading. Please wait.

Auferstehung Tab

41 views 3 this week
no commentswrite comment
1 2 3 4 5
please rate
add to favorites
launch autoscroll
font size
0
reset
how to read this tab
guitar tuner
Tab Pro tools
  • play this tab
  • loop segment
  • change instrument
  • show fretboard
  • metronome
Autoscroll
slow
fast
+/-
esc
set tempo
stop
Contributor
Difficulty
Tuning
E A D G B E
          Tanzwut
      - Auferstehung -
        Tanzwut live

      tabbed by PelzR


Tuning: Standard E (E A D G B E)

Altough I like both versions of this song, I prefer the live version for the 
playability. 
When I remember correctly the studio version doesn't have any guitar stuff, so 
here is a tab for the
live version. Also I have tabbed the bagpipes because there are very important for 
this song... and
fun to play. Original Tanzwut uses an Drop-A Tuning, I did it in Standard Tuning.

Description:
------------
. -> palm mute
o
o -> repeat
X -> dead note

Riffs:
------

Verse
                                    
E|---| the whole verse
B|---| is just this
G|---| repeated powerchord
D|-2-| 
A|-2-| Patrick (the guitarist)
E|-0-| does sometimes pick scrapes 
    

Bridge

E|-----------------------|
B|-10------10------10----|
G|--X-------X-------X----|
D|--7-7777--7-7777--7-77-|
A|-----------------------|
E|-----------------------|
      ....    ....    ..


Bagpipe 'comes in'

E|-12-|-10-|
B|-10-|--8-| contains
G|----|----| both 
D|----|----| bagpipe 
A|----|----| voices
E|----|----|
  

Bagpipe Chorus
                                                                 2x
E|--12-|-12--10----|-10-|-(10)-----10-|-12--10----|---------|-----|
B|-----|--------13-|----|-------13----|--------13-|-12-10-8-|-10--|
G|o----|-----------|----|-------------|-----------|---------|----o|
D|o----|-----------|----|-------------|-----------|---------|----o|
A|-----|-----------|----|-------------|-----------|---------|-----|
E|-----|-----------|----|-------------|-----------|---------|-----|

E|----------|------------|-------10-12-|-10-------|----10-12-|-12-|-10----10-|-(10)-|
B|-10-12-13-|-(13)-12-10-|-12-13-------|----13-12-|-13-------|----|----13----|------|
G|----------|------------|-------------|----------|----------|----|----------|------|
D|----------|------------|-------------|----------|----------|----|----------|------|
A|----------|------------|-------------|----------|----------|----|----------|------|
E|----------|------------|-------------|----------|----------|----|----------|------|

E|----10-12-|-(12)-12-|-10----10-12-|-10-------|---------|-10----------|------|------|
B|-13-------|---------|----13-------|----13-12-|-10-8-10-|----13-12-10-|-8-10-|-(10)-|
G|----------|---------|-------------|----------|---------|-------------|------|------|
D|----------|---------|-------------|----------|---------|-------------|------|------|
A|----------|---------|-------------|----------|---------|-------------|------|------|
E|----------|---------|-------------|----------|---------|-------------|------|------|


Bagpipe Outro
                                                           2x
E|--12--12--10----|-10--10-----10-|-12--10------------|-----|
B|-------------13-|---------13----|--------13-12-10-8-|-10--|
G|o---------------|---------------|-------------------|----o|
D|o---------------|---------------|-------------------|----o|
A|----------------|---------------|-------------------|-----|
E|----------------|---------------|-------------------|-----|

E|-----------------|-------10-12-10-------|----10-12--12-|-10----10--10-|
B|-10-12-13--12-10-|-12-13----------13-12-|-13-----------|----13--------|
G|-----------------|----------------------|--------------|--------------|
D|-----------------|----------------------|--------------|--------------|
A|-----------------|----------------------|--------------|--------------|
E|-----------------|----------------------|--------------|--------------|

E|----10-12--12-|-10----10-12-10-------|----------10----------|-------|
B|-13-----------|----13----------13-12-|-10-8-10-----13-12-10-|-8--10-|
G|--------------|----------------------|----------------------|-------|
D|--------------|----------------------|----------------------|-------|
A|--------------|----------------------|----------------------|-------|
E|--------------|----------------------|----------------------|-------|


Song Structure:
---------------
Intro
Verse  8x
Bridge 4x
Verse  8x
Break
Chorus
 |-> Bagpipe 'comes in' 1x
 |-> Bagpipe Chorus     1x
Verse  8x
Bridge 4x
Verse  8x
Break
Chorus
 |-> Bagpipe 'comes in' 1x
 |-> Bagpipe Chorus     1x
Outro
 |-> Bagpipe Outro      4x
comments
We did not receive enough feedback on this tab! Please rate:
print report bad tab
1 2 3 4 5
I want to post or [tab]
guest
You may want to rate the tab now too:
select rating
Please do not post tabs as comments. Select "correction" instead!