Oops, an error
Loading. Please wait.

Zaubern Tab

44 views 1 this week
no commentswrite comment
1 2 3 4 5
please rate
add to favorites
launch autoscroll
font size
0
reset
how to read this tab
guitar tuner
Autoscroll
slow
fast
+/-
esc
set tempo
stop
Help us to improve Ultimate-Guitar.com Take our survey!
×
Contributor
PelzR 2,836
          Tanzwut
        - Zaubern -
      Ihr wolltet Spass

      tabbed by PelzR


Tuning: Drop A (A E A D F# B)

Update: I have transcribed anything to the orginal Drop A Tuning. 

Description:
------------
p  -> pull-off
x  -> dead note
.  -> palm mute
R  -> rest


Riffs:
------

Intro
   
B |---------------------|---------------------|-----------------------|-------------------|
F#|---------------------|---------------------|-----------------------|-------------R-----|
D |---------------------|---------------------|-----------------------|-------------------|
A |-2----7p5--------7-8-|-2----7p5--------5-8-|-2----7p5--------7-8-8-|-2----7p5--------5-|
E |-0-00-----00-000-5-6-|-0-00-----00-000-3-6-|-0-00-----00-000-5-6-6-|-0-00-----00---5-3-|
A |---------------------|---------------------|-----------------------|---------------5---|
      ..     .. ...         ..     .. ...         ..     .. ...           ..     ..
  

Pre-Verse

B |-----------------------|---------------------|
F#|-----------------------|---------------------|
D |-----------------------|---------------------|
A |-2----7p5--------7-8-8-|-2----7p5--------5-8-|
E |-0-00-----00-000-5-6-6-|-0-00-----00-000-3-6-|
A |-----------------------|---------------------|
      ..     .. ...           ..     .. ...


Verse

B |---------------
F#|--------------- play as often as 
D |--------------- needed
A |-00-0-0-00-0-0-
E |--------------- and listen carefully
A |--------------- for the timing
    .. . . .. . .
     
B |---|---|----|----| halfway through
F#|---|---|----|----| the verse there
D |-7-|-9-|-10-|-12-| is a additional
A |-X-|-X-|--X-|--X-| guitar playing 
E |-5-|-7-|--8-|-10-| this two times
A |---|---|----|----|
     

Chorus 1

B |-----------------|-----------------|-----------------|-----------------|
F#|-----------------|-----------------|-----------------|-----------------|
D |-5-5-5-5-5-5-5-5-|-----------------|-----------------|-7-7-7-7-7-7-7-7-|
A |-5-5-5-5-5-5-5-5-|-5-5-5-5-5-5-5-5-|-8-8-8-8-8-8-8-8-|-7-7-7-7-7-7-7-7-|
E |-3-3-3-3-3-3-3-3-|-5-5-5-5-5-5-5-5-|-8-8-8-8-8-8-8-8-|-5-5-5-5-5-5-5-5-|
A |-----------------|-5-5-5-5-5-5-5-5-|-8-8-8-8-8-8-8-8-|-----------------|  

B |-----------------|-----------------|-----------------|-----------------|
F#|-----------------|-----------------|-----------------|-----------------|
D |-5-5-5-5-5-5-5-5-|-----------------|-8-8-8-8-8-8-8-8-|-7-7-7-7-7-7-7-7-|
A |-5-5-5-5-5-5-5-5-|-5-5-5-5-5-5-5-5-|-8-8-8-8-8-8-8-8-|-7-7-7-7-7-7-7-7-|
E |-3-3-3-3-3-3-3-3-|-5-5-5-5-5-5-5-5-|-6-6-6-6-6-6-6-6-|-5-5-5-5-5-5-5-5-|
A |-----------------|-5-5-5-5-5-5-5-5-|-----------------|-----------------|
                                                                    . . .

Interlude

B |-----------------| 
F#|-----------------| 
D |-----------------|
A |-0-0-0-0-0-0-0-0-|
E |-----------------|
A |-----------------|
    . . . . . . . .
    
    
Chorus 2

B |-----------------|-----------------|-----------------|-----------------|
F#|-3-3-3-3-3-3-3-3-|-----------------|-----------------|-5-5-5-5-5-5-5-5-|
D |-2-2-2-2-2-2-2-2-|-2-2-2-2-2-2-2-2-|-5-5-5-5-5-5-5-5-|-4-4-4-4-4-4-4-4-|
A |-0-0-0-0-0-0-0-0-|-2-2-2-2-2-2-2-2-|-5-5-5-5-5-5-5-5-|-2-2-2-2-2-2-2-2-|
E |-----------------|-0-0-0-0-0-0-0-0-|-3-3-3-3-3-3-3-3-|-----------------|
A |-----------------|-----------------|-----------------|-----------------|
  
B |-----------------|-----------------|-----------------|-----------------| 
F#|-3-3-3-3-3-3-3-3-|-----------------|-6-6-6-6-6-6-6-6-|-5-5-5-5-5-5-5-5-| 
D |-2-2-2-2-2-2-2-2-|-2-2-2-2-2-2-2-2-|-5-5-5-5-5-5-5-5-|-4-4-4-4-4-4-4-4-|
A |-0-0-0-0-0-0-0-0-|-2-2-2-2-2-2-2-2-|-3-3-3-3-3-3-3-3-|-2-2-2-2-2-2-2-2-|
E |-----------------|-0-0-0-0-0-0-0-0-|-----------------|-----------------|
A |-----------------|-----------------|-----------------|-----------------|
                                                                    . . .

Outro

B |---| 
F#|-3-| let ring
D |-2-| until the sound
A |-0-| is faded out
E |---|
A |---|


Bagpipe 
   
B |------------------|-17----17-19-|-20----22-|-19----17-15-|
F#|-15--15-17-15--15-|-------------|----------|-------------|
D |------------------|-------------|----------|-------------|
A |------------------|-------------|----------|-------------|
E |------------------|-------------|----------|-------------|
A |------------------|-------------|----------|-------------|

B |------------------|-17----17-19-|-20-|-19-|
F#|-15--15-17-15--15-|-------------|----|----|
D |------------------|-------------|----|----|
A |------------------|-------------|----|----|
E |------------------|-------------|----|----|
A |------------------|-------------|----|----|


Song Structure:
---------------
Intro     1x
Pre-Verse 2x
Verse     --
Chorus 1  1x
Pre-Verse 2x
Verse     --
Chorus 1  1x
Break
Interlude 8x
Chorus 2  5x
Outro     1x
Suggest correction new What's this?
You can suggest a correction to this tab. Community and Mods will review your correction and vote to approve or reject it.
comments
We did not receive enough feedback on this tab! Please rate:
print report bad tab
1 2 3 4 5
guest
You may want to rate the tab now too:
select rating
Please do not post tabs as comments. Select "correction" instead!