Oops, an error
Loading. Please wait.

Crazy Eights intro tab

version 1
version 1

Intro

Whole song

562 views 1 this week
2 commentsread comments
1 2 3 4 5
x 3
add to favorites
×
Save as Personal and add changes to this tab that will be seen only by you. Learn more ›
×
You can save this tab as Personal to edit and correct it or add notes. All changes will be seen only by you. Learn more »
launch autoscroll
font size
0
reset
how to read this tab
guitar tuner
edit
Autoscroll
slow
fast
+/-
esc
set tempo
stop
Author
Thank you for looking for good music.

e|-----------------------------------------------------------------------|
B|-----------------------------------------------------------------------|
G|-----------------------------------------------------------------------| X2
D|--------------5*---------------7*--------------------------------------|
A|--------------5----------------7---------------------------------------|
E|-0-3-0-5-3-0--3---0-3-0-5-3-0--5---------------------------------------|

* = Repeat as necessary (I think it's 10 times)

Questions? Comments? steve.lamas@gmail.com

http://www.tapesntapes.com/

            
            
Suggest correction
Creating personal tab
Creating personal tab
You can edit any tab online and save it as your Personal.

You can edit, replace or remove any tab part or add personal notes – all changes will be seen only by you.

Personal tabs can be accessed anytime from any device, even offline.
Learn more »
Give kudos to tab author, rate the tab!
1 2 3 4 5
comments
print report bad tab
2 comments total.
0 reply
FaxMonger 10 Jun 23, 2007 02:13 PM

Please expand the tabs. That is obviously not all of the song.

0 reply
Shwax 256 Oct 17, 2013 11:32 AM

Sadly, even though it's just the intro, it's incorrect. Should be:

e|-----------------------------------------------------------------------|
B|-----------------------------------------------------------------------|
G|--------------5*-------------------------------------------------------| X2
D|--------------5----------------7*--------------------------------------|
A|--------------3----------------7---------------------------------------|
E|-0-3-0-5-3-0------0-3-0-5-3-0--5---------------------------------------|

guest
You may want to rate the tab now too:
select rating
Wanna post a correction for this tab? Suggest correction