Oops, an error
Loading. Please wait.

Manitoba intro tab

version 1
version 1

Intro

Whole song

327 views 1 this week
3 commentsread comments
1 2 3 4 5
x 3
add to favorites
×
Save as Personal and add changes to this tab that will be seen only by you. Learn more ›
×
You can save this tab as Personal to edit and correct it or add notes. All changes will be seen only by you. Learn more »
launch autoscroll
font size
0
reset
how to read this tab
guitar tuner
edit
Autoscroll
slow
fast
+/-
esc
set tempo
stop
Author
Difficulty
Thanks you for looking up good music.

This is one of my first tabs, so it might be off, but it sounds good to me.

e|-----------------------------------------------------------------------------|
B|---9---9---9---14---14---14---9---9---9----12--------10----------------------|
G|-9---9---9---14---14---14---9---9---9---13---13---11---11--------------------|
D|-----------------------------------------------------------------------------|
A|-----------------------------------------------------------------------------|
E|-----------------------------------------------------------------------------|

Questions? Comments? steve.lamas@gmail.com

http://www.tapesntapes.com/

            
            
Suggest correction
Creating personal tab
Creating personal tab
You can edit any tab online and save it as your Personal.

You can edit, replace or remove any tab part or add personal notes – all changes will be seen only by you.

Personal tabs can be accessed anytime from any device, even offline.
Learn more »
Give kudos to tab author, rate the tab!
1 2 3 4 5
comments
print report bad tab
3 comments total.
0 reply
MeeCexii 391 Apr 29, 2006 04:57 PM

The tab is simply inaccurate. Since this tab is short, the mistake is about 15% of the tab.

0 reply
snOwBL1nD 48 May 02, 2006 04:14 PM

Yeah, that was my first tab. Since you didn't help out here's what I think sounds better.

e|---------------------------------------------------------------------------|
B|---9---9---9---14---14---14---9---9---9----12--------10--------------------|
G|-9---9---9---14---14---14---9---9---9---13---13---11---11------------------|
D|---------------------------------------------------------------------------|
A|---------------------------------------------------------------------------|
E|---------------------------------------------------------------------------|

0 reply
.pip. 10 Oct 07, 2006 01:56 AM

yeah that second tab sounds much better.

guest
You may want to rate the tab now too:
select rating
Wanna post a correction for this tab? Suggest correction