Oops, an error
Loading. Please wait.

Myself bass

by Taproot
249 views 1 this week
no commentswrite comment
1 2 3 4 5
3 more votes to show rating
add to favorites
×
Save as Personal and add changes to this tab that will be seen only by you. Learn more ›
×
You can save this tab as Personal to edit and correct it or add notes. All changes will be seen only by you. Learn more »
launch autoscroll
font size
0
reset
guitar tuner
edit
Autoscroll
slow
fast
+/-
esc
set tempo
stop
Author
Difficulty
Taproot - Myself
Album: Welcome

bass tab

by : doky 2007
taquilleros_de_sudamerica_maroyu_el_grupo_tropical_del_momento@hotmail.com

5-stringed bass
G D A E B

   INTRO
G-|--------------------------|
D-|--------------------------|
A-|--------------------------|
E-|-6666-6666-6666-6666-5----|
B-|--------------------------|
                                                                              

   VERSO
G-|-------------------------|---|---------------------|
D-|-------------------------|---|---------------------|
A-|-------------------------|---|-------------53---53-|
E-|---3-----3-----3---3-----|---|---31---31-----------|
B-|-0-----0-----0-------0---|---|-0----0----0----0----|
                              +                                                

   BREAK
G-|--------|
D-|--------|
A-|--------|
E-|--------|
B-|-5555\0-|
                                                                              

   CORO
G-|------------------|
D-|------------------|
A-|------------------|
E-|-6666-6-6-6-6-5---|
B-|------------------|
                                                                              

   MIDDLE
G-|-----|---------|----------|--------------*---------------|
D-|-----|---------|----------|--------------*---------------|
A-|-4---|---------|----------|--------------*-222222--------|
E-|-----|-2-------|----------|-222222-------*---------------|
B-|-----|-----3---|----------|--------333333*--------333333-|
                    + coro +                                                   


G-|-----------|---------------|
D-|-----------|---------------|
A-|-----------|-222222--------|
E-|-----------|---------------|
B-|-----------|--------3------|
    acaba con                                                                  

   FIN
G-|----------------------|
D-|----------------------|
A-|----------------------|
E-|-6666-6-6-6-6-5-------|
B-|----------------------|
                         
Mando muchas congratulaciones taras al Gato, Alastorezaga y al Antoney por ir a mi casa y causar destrozos
graves en mi departamento y como todo esta grabado lo voy a mostrar en todo lado.
pero huaso estaba ese dia asi que les digo: gracias por haber ido o sino que hubiera hecho, nada ps.
aunque yo he hecho mas destrozos ya que he mezclado la comida en la mesa y he tomado mi fanta
a lo llama, todo estaba destruido y sucio, aunque El Antoney nos ha enseñado a preparar un traguito.

doky2007                                           
Suggest correction
Creating personal tab
Creating personal tab
You can edit any tab online and save it as your Personal.

You can edit, replace or remove any tab part or add personal notes – all changes will be seen only by you.

Personal tabs can be accessed anytime from any device, even offline.
Learn more »
Give kudos to tab author, rate the tab!
1 2 3 4 5
comments
print report bad tab
guest
You may want to rate the tab now too:
select rating
Wanna post a correction for this tab? Suggest correction