Oops, an error
Loading. Please wait.

Poem tab

version 3
by Taproot
580 views 1 this week
1 commentread comment
1 2 3 4 5
2 more votes to show rating
add to favorites
×
Save as Personal and add changes to this tab that will be seen only by you. Learn more ›
×
You can save this tab as Personal to edit and correct it or add notes. All changes will be seen only by you. Learn more »
launch autoscroll
font size
0
reset
how to read this tab
guitar tuner
edit
Autoscroll
slow
fast
+/-
esc
set tempo
stop
Author
This song is awesome I’m pretty sure this is correct if not email me
stevieb_2007@hotmail.com I am only 13 so.
Regular tuning (EAGDBe)
/-slide

INTRO clean (strumming not included figure it out)
E---------------------------------------------------------------------
B---------------------------------------------------------------------
D---4------------7-----------4----------------------------------------
G---4------5-----7-----7-----4---5-----7/----9-------7/-------9----10-
A---2------5-----5-----7-----2---5-----7/----9-------7/-------9----10-
E----------3-----------5---------3-----5/----7-------5/-------7-----8-
Heavy Distortion x4
E--------------------------------------------------------------------
B--------------------------------------------------------------------
D--------------------------------------------------------------------
G----7/-----9-----7/-----9-----10------------------------------------
A----7/-----9-----7/-----9-----10------------------------------------
E----5/-----7-----5/-----7------8------------------------------------
Verse x5
E--------------------------------------------------------------------
B--------------------------------------------------------------------
D--------------------------------------------------------------------
G----7/-----9-----7/-----9-----10------------------------------------
A----7/-----9-----7/-----9-----10------------------------------------
E----5/-----7-----5/-----7------8------------------------------------
Heavy Distortion x4
E--------------------------------------------------------------------
B--------------------------------------------------------------------
D--------------------------------------------------------------------
G----7/-----9-----7/-----9-----10------------------------------------
A----7/-----9-----7/-----9-----10------------------------------------
E----5/-----7-----5/-----7------8------------------------------------
Chorus light distortion x2
E---------------------------------------------------------------------
B---------------------------------------------------------------------
D---4------------7-----------4----------------------------------------
G---4------5-----7-----7-----4---5---- 7/----9------7/------9------10-
A---2------5-----5-----7-----2---5-----7/----9------7/------9------10-
E----------3-----------5---------3-----5/----7------5/------7------8--
Verse x5
E--------------------------------------------------------------------
B--------------------------------------------------------------------
D--------------------------------------------------------------------
G----7/-----9-----7/-----9-----10------------------------------------
A----7/-----9-----7/-----9-----10------------------------------------
E----5/-----7-----5/-----7------8------------------------------------
Heavy Distortion x4
E--------------------------------------------------------------------
B--------------------------------------------------------------------
D--------------------------------------------------------------------
G----7/-----9-----7/-----9-----10------------------------------------
A----7/-----9-----7/-----9-----10------------------------------------
E----5/-----7-----5/-----7------8------------------------------------
The bridge is practically the same notes as the verse w/heavy distortion its
really easy to figure out.

Chorus light distortion x2
E--------------------------------------------------------------------
B--------------------------------------------------------------------
D---4------------7-----------4---------------------------------------
G---4------5-----7-----7-----4---5-----7/----9------7/------9----10--
A---2------5-----5-----7-----2---5-----7/----9------7/------9----10--
E----------3-----------5---------3-----5/----7------5/------7----8---
The end is like this x2
E--------------------------------------------------------------------
B--------------------------------------------------------------------
D--------------------------------------------------------------------
G----7/-----9-----7/-----9-----10------------------------------------
A----7/-----9-----7/-----9-----10------------------------------------
E----5/-----7-----5/-----7------8------------------------------------

            
            
Suggest correction
Creating personal tab
Creating personal tab
You can edit any tab online and save it as your Personal.

You can edit, replace or remove any tab part or add personal notes – all changes will be seen only by you.

Personal tabs can be accessed anytime from any device, even offline.
Learn more »
Give kudos to tab author, rate the tab!
1 2 3 4 5
comments
print report bad tab
1 comment total.
0 reply
sane_person 396 Apr 06, 2003 08:00 PM

after intro it goes:

E|--------------------------
B|--------------------------
G|--------------------------
D|--0--4-4-x-0--4-4-x-x--5--
A|--0--4-4-x-0--4-4-x-x--5--
E|--0--2-2-x-0--2-2-x-x--3--
and bridge is:

E|----------------
B|----------------
G|----------------
D|----------------
A|--44--------44--
E|--22--------22--
that's correct

guest
You may want to rate the tab now too:
select rating
Wanna post a correction for this tab? Suggest correction