Oops, an error
Loading. Please wait.

Shudder bass

by Taproot
40 views 1 this week
no commentswrite comment
1 2 3 4 5
3 more votes to show rating
add to favorites
×
Save as Personal and add changes to this tab that will be seen only by you. Learn more ›
×
You can save this tab as Personal to edit and correct it or add notes. All changes will be seen only by you. Learn more »
launch autoscroll
font size
0
reset
guitar tuner
edit
Autoscroll
slow
fast
+/-
esc
set tempo
stop
Author
Difficulty
Taproot - Shudder

bass tab

by : doky 2007
taquilleros_de_sudamerica_maroyu_el_grupo_tropical_del_momento@hotmail.com

5-stringed bass
G D A E B

   VERSO 1
G-|------------------|
D-|------------------|
A-|-----42----22-----|
E-|--------42----4-4-|
B-|-2-2--------------|
                                                                              

   VERSO 2
G-|--------------------|
D-|--------------------|
A-|-----42----22---2h4-|
E-|--------42----4-----|
B-|-2-2----------------|
      
                                                                        
   CORO
G-|--------------------------------|
D-|--------------------------------|
A-|--------------------------------|
E-|--------------------------------|
B-|-44-477-755-5/14-14-14-14\9-999-|
                                                                              

   VERSO 3
G-|------------------|------------------|
D-|------------------|------------------|
A-|--------2222------|--------2222/6666-|
E-|------------------|------------------|
B-|-222222------4444-|-222222-----------|
                                                                              

   MIDDLE
G-|------------------|-------------------------------------------|
D-|------------------|-------------------------------------------|
A-|--------2222------|-------------------------------------------|
E-|------------------|-------------------------------------------|
B-|-222222------4444-|-5-5-5-5-5-5-5-5/17-17-17-17-17-17-17-17\0-|
                                                                              

   PARA ENGANCHAR AL VERSO
G-|-------|
D-|-------|
A-|-2-2h4-|
E-|-------|
B-|-------|

Le mando muchas congratulaciones a La Yarets por haberme ayudado a hacer las llamas para la Andy
en mi patio, en mi terraza y cuarto tara con olor a rata muerta. ella se ha rajado las hojas una vez
y luego cuando he querido hacer una llama de 40 hojas solo compre 20, era demasiado y habia viento.
si es posible las voy a quemar las 2 llamas y voy a comprar 100 hojas y le voy a decir que armaremos una 
mega llama en la cancha topater 7.

doky2007

            
            
Suggest correction
Creating personal tab
Creating personal tab
You can edit any tab online and save it as your Personal.

You can edit, replace or remove any tab part or add personal notes – all changes will be seen only by you.

Personal tabs can be accessed anytime from any device, even offline.
Learn more »
Give kudos to tab author, rate the tab!
1 2 3 4 5
comments
print report bad tab
guest
You may want to rate the tab now too:
select rating
Wanna post a correction for this tab? Suggest correction