Oops, an error
Loading. Please wait.

Insomnia Acoustic tab

19 views 1 this week
no commentswrite comment
1 2 3 4 5
3 more votes to show rating
add to favorites
×
Save as Personal and add changes to this tab that will be seen only by you. Learn more ›
×
You can save this tab as Personal to edit and correct it or add notes. All changes will be seen only by you. Learn more »
launch autoscroll
font size
0
reset
how to read this tab
guitar tuner
edit
Autoscroll
slow
fast
+/-
esc
set tempo
stop
About this tab version
Capo 1. Song version linked. Leave question and suggestions in comments. Was this info helpful? Yes No
For the acoustic version:
https://www.youtube.com/watch?v=QDjCImsWQNo

[Intro]
D 
e|--5-----------------------|
B|--3-----------------------|
G|--4-----------------------|
D|--5-----------------------|   
A|--------------------------|
E|--------------------------|

C

[Verse]
D            Am                      
I can't sleep do you wanna take a walk?
e|-------------------------|
B|----1--------------------|
G|---2---------------------|
D|-3---2--0----------------|   into C chord
A|-----------3-------------|
E|-------------------------|

D                  Am                   
It's almost morning we might as well stay up

e|-------------------------|
B|----1--------------------|
G|---2---------------------|
D|-3---2--0----------------|   into C chord
A|-----------3-------------|
E|-------------------------|

D                                    Am                  [Riff 1]
If it all came crashing down would I ever make a single sound? I don't know...

e|-------------------------|
B|----1--------------------|
G|---2---------------------|
D|-3---2--0----------------|   into C chord
A|-----------3-------------|
E|-------------------------|

D                            Am                       
If it all came crashing down tonight would I make a sound?

e|-------------------------|
B|----1--------------------|
G|---2---------------------|
D|-3---2--0----------------|   x2
A|-----------3-------------|
E|-------------------------|

[Chorus]
F bar        Am         G                 Am
Caught me insomnia, oh I didn't mean to wake you up
F bar         Am                        G               Am
But I can't sleep with all this in my head hiding in the day till I'm in bed
F bar        Am          G                Am          G F bar
Caught me insomnia, I think it's worse than its ever been

[Bridge]
F bar G bar
C bar              High F Bar
Oh I don't want to end this way
C bar              High F bar
I wanna sleep and I wanna be there when you wake
C bar               Am bar -> High F bar 
Oh I don't want to end at all
C bar          F Bar  
But I caught me insomnia 
(Back to chorus)

[Outro]
F bar   G bar
F bar   G bar       Am x4
Ooooooooooooooooooooooh's 
A
Ooooooh






            
            
Suggest correction
Creating personal tab
Creating personal tab
You can edit any tab online and save it as your Personal.

You can edit, replace or remove any tab part or add personal notes – all changes will be seen only by you.

Personal tabs can be accessed anytime from any device, even offline.
Learn more »
Give kudos to tab author, rate the tab!
1 2 3 4 5
comments
print report bad tab
guest
You may want to rate the tab now too:
select rating
Wanna post a correction for this tab? Suggest correction