Oops, an error
Loading. Please wait.

Pituco Bass

by Tarpuy
47 views 1 this week
no commentswrite comment
1 2 3 4 5
3 more votes to show rating
add to favorites
launch autoscroll
font size
0
reset
guitar tuner
×
Best way to learn
"Pituco"
Autoscroll
slow
fast
+/-
esc
set tempo
stop
Los bajos y la percucion son muy importantes en este tema..Soyenselo
(Ginebra v)


Em7*  Am7*


  Em7*                | Am7*
e-10-10-7-5-7-5-5-7---|-10-10-7-5-7-5-5-7---|
B--------------7----5-|--------------7----5-|    (x4)
G---------------------|---------------------|
Intro:                |                     |

  Em7*                  Am7*
e-10-10-7-5-7-5-5-7---|-10-10-7-5-7-5-5-7---|10/12-10---------0|
B--------------7----5-|--------------7------|--------12-10-8-7-|
G---------------------|---------------------|------------------|

Esto lo hace el charango, pero tambien se puede hacer en guitarra.

                C   D                  Em
e-0-0-3-7-5-3-0-7-5-10-10-10-12-------0---|
B------------------------------12-10------|   (x2)
G-----------------------------------12----|
 (E E G B A G E B A  D  D  D  E B A G E)
Las notas en la sampoña son mas o menos asi


Em                Bm BM7           Em
e-0-0-3-3-0-3-2-0-2-5-5-5-7---------|
B----------------3---------8-7-8-5--|    (x2)
G-----------------------------------|
 (E E G G E G F#EDF#A A A BG F#G E)
               sampoña
Em              C   D                  Em
e-0-0-3-7-5-3-0-7-5-10-10-10-12-------0---|
B------------------------------12-10------|   (x2)
G-----------------------------------12----|
 (E E G B A G E B A  D  D  D  E B A G E)
                sampoña


Em                Bm BM7           Em
e-0-0-3-3-0-3-2-0-2-5-5-5-7---------|
B----------------3---------8-7-8-5--|    (x2)
G-----------------------------------|
 (E E G G E G F#EDF#A A A BG F#G E)
              sampoña


 (E E G G E G F#EDF#A A A BG F#G E)
              sampoña


 Em                   | A
e-10-10-7-5-7-5-5-7---|-10-10-7-5-7-5-5-7---|
B--------------7----5-|--------------7----5-|    (x3)
G---------------------|---------------------|


  Em                    A
e-10-10-7-5-7-5-5-7---|-10-10-7-5-7-5-5-7---|10/12-10---------0|
B--------------7----5-|--------------7------|--------12-10-8-7-|
G---------------------|---------------------|------------------|


                C   D                  Em
e-0-0-3-7-5-3-0-7-5-10-10-10-12-------0---|
B------------------------------12-10------|   (x2)
G-----------------------------------12----|
 (E E G B A G E B A  D  D  D  E B A G E)
Las notas en la sampoña son mas o menos asi


                  C  D             Em
e-0-0-3-3-0-3-2-0-2-5-5-5-7---------|
B----------------3---------8-7-8-5--|    (x2)
G-----------------------------------|
(E E G G E G F#EDF#A A A BG F#G E)
Las notas en la sampoña son mas o menos asi

(solo tienes que escuchar con atención)

  Em          C               Em              C
e-0-0-0-5-3-0-3-|-0-0-0-5-3-0-3-|-0-0-0-5-3-0-3-|0-0-0-5-3h5-0-|
B--0------------|--0------------|--0------------|---0-------5--|
G---------------|---------------|---------------|--------------|
                     Charango

(nuevamente los vientos ayudan a armonizar a las cuerdas)

        C*                        C*
e-0-0-0-5-3-0-5-3-0-3-0-3-|-0-0-0-5-3-0-5-3-0-3-0-3-|
B-------------------------|-------------------------|
G-------------------------|-------------------------|
 (EEE E A G E A G E  A G)   (EEE E A G E A G E  A G)


        G                     B7                E
e-------------------------|---5-3-2-3-2-0-0-2-0-0-|
B-0-0-0-5-3-0-5-3-0-3-0-3-|0-0-----------------3--|
G-------------------------|-----------------------|
 (BbB B E D B E D B   E D)(B BG F E D B A B A GGE)       (x2)


      G                           C*
e-------------------------|-0-0-0-5-3-0-5-3-0-3-0-3-|
B-0-0-0-5-3-0-5-3-0-3-0-3-|-------------------------|
G-------------------------|-------------------------|
(BbB B E D B E D B   E D)  (EEE E A G E A G E  A G)

      G                       B7                E
e-------------------------|---5-3-2-3-2-0-0-2-0-0-|
B-0-0-0-5-3-0-5-3-0-3-0-3-|0-0-----------------3--|
G-------------------------|-----------------------|
(BbB B E D B E D B   E D) (B BG F E D B A B A GGE)    (x2)


 Em                   | A
e-10-10-7-5-7-5-5-7---|-10-10-7-5-7-5-5-7---|
B--------------7----5-|--------------7----5-|    (x3)
G---------------------|---------------------|


  Em                    A
e-10-10-7-5-7-5-5-7---|-10-10-7-5-7-5-5-7---|10/12-10---------0|
B--------------7----5-|--------------7------|--------12-10-8-7-|
G---------------------|---------------------|------------------|

Estas son la bases del Tema, espero les sea de buena utilidad.
Suggest correction
Give kudos to tab author, rate the tab!
1 2 3 4 5
comments
print report bad tab
guest
You may want to rate the tab now too:
select rating
Wanna post a correction for this tab? Suggest correction