Oops, an error
Loading. Please wait.

Jungle intro tab

version 1
version 1

Intro

  • The rhythms are not written, the best way to learn... Show more
  • All guitar parts transcribed accurately, spaced ou... Show more
11,452 views 507 this week
1 commentread comment
1 2 3 4 5
x 11
add to favorites
×
Save as Personal and add changes to this tab that will be seen only by you. Learn more ›
×
You can save this tab as Personal to edit and correct it or add notes. All changes will be seen only by you. Learn more »
launch autoscroll
font size
0
reset
how to read this tab
guitar tuner
edit
Autoscroll
slow
fast
+/-
esc
set tempo
stop
Author
Difficulty
About this tab version
The rhythms are not written, the best way to learn this is to listen to Tash and copy her. This is just a rough guide, but the notes should be fairly accurate. I used her EP recording as a guide. Was this info helpful? Yes No
[Intro]
Riff 1
e|-----------------------------------------------------14-12----12---------------------|
B|-----7-9-12---------------------------------------12-------14----14-12-14------12-14-|
G|-6-9--------11-9-11-9----9------------------11-13-------------------------13-13------|
D|----------------------11---11-9-11-9-------------------------------------------------|
A|-------------------------------------9-11-9------------------------------------------|
E|-------------------------------------------------------------------------------------|

e|-12----11-11-11-12-12-|   
B|----14----------------|   
G|----------------------|   
D|----------------------|  
A|----------------------|   
E|----------------------|  

Riff 2
e|-14-12-------14-12--------|
B|-------14-12-------14-12--|
G|--------------------------| x8
D|--------------------------|
A|--------------------------|
E|--------------------------|

Riff 3
e|-17-16-------17-16--------|
B|-------17-14-------17-14--|
G|--------------------------| x8
D|--------------------------|
A|--------------------------|
E|--------------------------|

Riff 4
e|-12-11-9-7-9h11-9-7-9-9h11-9-11-7-4-2-0----|
B|----------------------------------------2--|
G|-------------------------------------------| x2
D|-------------------------------------------|
A|-------------------------------------------|
E|-------------------------------------------|



************************************

| h  Hammer-on

************************************

            
            
Suggest correction
Creating personal tab
Creating personal tab
You can edit any tab online and save it as your Personal.

You can edit, replace or remove any tab part or add personal notes – all changes will be seen only by you.

Personal tabs can be accessed anytime from any device, even offline.
Learn more »
comments
print report bad tab
1 comment total.
+1 reply
ibsysby 36 Mar 24, 2017 02:01 AM

Chords here: https://tabs.ultimate-guitar.com/t/tash_sultana/jungle_crd.htm these are spot on.

guest
You may want to rate the tab now too:
select rating
Wanna post a correction for this tab? Suggest correction