Oops, an error
Loading. Please wait.

Jungle intro tab

version 2
version 2

Intro

  • The rhythms are not written, the best way to learn... Show more
  • All guitar parts transcribed accurately, spaced ou... Show more
2,452 views 252 this week
1 commentread comment
1 2 3 4 5
x 7
add to favorites
×
Save as Personal and add changes to this tab that will be seen only by you. Learn more ›
×
You can save this tab as Personal to edit and correct it or add notes. All changes will be seen only by you. Learn more »
launch autoscroll
font size
0
reset
how to read this tab
guitar tuner
edit
Autoscroll
slow
fast
+/-
esc
set tempo
stop
Author
NSpen1 [tm] 8,514
About this tab version
All guitar parts transcribed accurately, spaced out and put into bars to represent rhythm with triplet timings notated. Correct positioning and articulations used. Was this info helpful? Yes No
Tash Sultana - Jungle
intro guitar parts

  [Lead]
e|----------------|-------------------------------------------------------|
B|----------------|----12-------------------------------------------------|
G|-------9-11--11s|13----\11--9-11p9----9---------------------------------|
D|---/11----------|------------------11---11-9-11p9----9----------------9-|
A|----------------|---------------------------------11---9-7-9p7---9s11---|
E|----------------|----------------------------------------------9--------|
                                \  3  / \  3  /\  3  / \ 3 / \ 3 / \  3  /

                          rake
e|-------------------------14p12----12----------------------|-12--14--14--14--16--16--16----------|
B|-------------12----------x-----14----14-12-14p12----12-14-|-14--16--16--16--17--17--17----------|
G|-----9-11s13----13------x------------------------13-------|-------------------------------------|
D|-11-------------------------------------------------------|-------------------------------------|
A|----------------------------------------------------------|-------------------------------------|
E|----------------------------------------------------------|-------------------------------------|
         \   3   /         \   3   /\   3   /\   3   /        \    3    / \    3    /

  [A]
e|-14---12-------------14---12-------------|
B|-----------14~~-12-------------14~~-12---|
G|-----------------------------------------| x4
D|-----------------------------------------|
A|-----------------------------------------|
E|-----------------------------------------|

  [B]
e|-17---16-------------17---16-------------|
B|-----------17~~-16-------------17~~-16---|
G|-----------------------------------------| x4  (w/[A] x4)
D|-----------------------------------------|
A|-----------------------------------------|
E|-----------------------------------------|

  [C]  (continue [A] and [B])
e|-16--16--16--16--14--14--14--12--12--12--11--12--|---------------------------------|
B|-17--17--17--17--16--16--16--14--14--14--12--14--|/16----14-14-~~~-----------12-14-|
G|-------------------------------------------------|---------------------------------|
D|-------------------------------------------------|---------------------------------|
A|-------------------------------------------------|---------------------------------|
E|-------------------------------------------------|---------------------------------|
   \    3    / \    3    / \    3    / \    3    /                           \  3  /

e|-------------------------11--------|------------------------------|
B|/16----14-14-~~~------------12-----|-----------------r------------|
G|-------------------------------\11-|-9---------------e------------|
D|-----------------------------------|----11-~~~~~~----s------------|
A|-----------------------------------|-----------------t------------|
E|-----------------------------------|------------------------------|
                           \   3   /   \   3   /

Repeat [A] and [B] x8
then repeat [C] (plus [A] and [B]) > verse


************************************

| /  Slide up into note
| \  Slide down into note (specifically slide from 13 to 11 on both occasions)
| s  Legato slide
| p  Pull-off
| ~  Vibrato

************************************
Suggest correction
Creating personal tab
Creating personal tab
You can edit any tab online and save it as your Personal.

You can edit, replace or remove any tab part or add personal notes – all changes will be seen only by you.

Personal tabs can be accessed anytime from any device, even offline.
Learn more »
comments
print report bad tab
1 comment total.
+1 reply
darcy betlehem 58 Apr 28, 2017 10:32 PM, edited on April 29 2017, 02:36 am

Great tab!!!

guest
You may want to rate the tab now too:
select rating
Wanna post a correction for this tab? Suggest correction