Oops, an error
Loading. Please wait.

Bomo Better On My Own tab

4,231 views 192 this week
no commentswrite comment
1 2 3 4 5
x 5
add to favorites
×
Save as Personal and add changes to this tab that will be seen only by you. Learn more ›
×
You can save this tab as Personal to edit and correct it or add notes. All changes will be seen only by you. Learn more »
launch autoscroll
font size
0
reset
how to read this tab
guitar tuner
edit
Autoscroll
slow
fast
+/-
esc
set tempo
stop
Author
About this tab version
This is an acoustic version of Tatiana Manaois' "Better On My Own" in standard tuning. Was this info helpful? Yes No
"B.O.M.O" by Tatiana Manaois
Tabbed by: Kevin Picar 3/8/2017
E-mail: kevinpicar@gmail.com
Tuning: STANDARD
CAPO: None
Difficulty: Beginner-Intermediate
Version: Original

[INTRO]
e|-x------------------x-------------------------------5------3h5-3----------|
B|-3--S-------3---S---x--S--------S----5--S----5--S---4--S---4----4---------|
G|-0--L---2s4-----L---8--L----8---L----5--L----5--L---5--L------------------|
D|-0--A-----------A---7--A----7---A----5--A---5---A---x--A------------------|
A|-x--P-----------P---6--P---6----P-------P--3----P---5--P--5------5--------|
E|-3-----3------------7-----7---------5-------------------------------------|

e|-3---------------------------------------------5------5h7-5---------------|
B|-3--S----3---S--5--S----5--S-----5--S----5--S--5------5---5---------------|
G|-0--L----0---L--7--L----7--L-----5--L----5--L--5------5---5---------------|
D|-x--A---2----A--6--A---6---A-----5--A---5---A-----------------------------|
A|-x--P--------P--7--P--7----P--------P-------P--5-----5--------------------|
E|-3-----3-----------------------0-5-----5----------------------------------|

[VERSE 1]
e|-x------------------x-------------------------------5------3h5-3----------|
B|-3--S-------3---S---x--S--------S----5--S----5--S---4--S---4----4---------|
G|-0--L---2s4-----L---8--L----8---L----5--L----5--L---5--L------------------| X3
D|-0--A-----------A---7--A----7---A----5--A---5---A---x--A------------------|
A|-x--P-----------P---6--P---6----P-------P--3----P---5--P--5------5--------|
E|-3-----3------------7-----7---------5-------------------------------------|

Bare with me on this one
It's been a minute, since I've been in my feels
But this is what I'm feeling
You tried to play your games, but you don't play fair
I would have sang to you and played with your hair
Oh, but you you you
You didn't want forever, you just wanted pleasure

e|-3---------------------------------------------5------55555\--------------|
B|-3--S----3---S--5--S----5--S-----5--S----5--S--5--S---55555\--------------|
G|-0--L----0---L--7--L----7--L-----5--L----5--L--5--L---55555\--------------|
D|-x--A---2----A--6--A---6---A-----5--A---5---A-----A-----------------------|
A|-x--P--------P--7--P--7----P--------P-------P--5--p---55555\--------------|
E|-3-----3-----------------------0-5-----5----------------------------------|

And I won't lie, we could have been so good together
But I could do much better on my own, 

[CHORUS]
e|-x------------------x-------------------------------5------3h5-3----------|
B|-3--S-------3---S---x--S--------S----5--S----5--S---4--S---4----4---------|
G|-0--L---2s4-----L---8--L----8---L----5--L----5--L---5--L------------------|
D|-0--A-----------A---7--A----7---A----5--A---5---A---x--A------------------|
A|-x--P-----------P---6--P---6----P-------P--3----P---5--P--5------5--------|
E|-3-----3------------7-----7---------5-------------------------------------|

yeah I know
That I could do much better on my own, 

e|-x------------------x--------------------------------55555\---------------|
B|-3--S-------3---S---x--S--------S----5--S----5--S----55555\---------------|
G|-0--L---2s4-----L---8--L----8---L----5--L----5--L----55555\---------------|
D|-0--A-----------A---7--A----7---A----5--A---5---A-------------------------|
A|-x--P-----------P---6--P---6----P-------P--3----P--0-55555\---------------|
E|-3-----3------------7-----7---------5-------------------------------------|

yeah I know

[VERSE 2]
e|-x------------------x-------------------------------5------3h5-3----------|
B|-3--S-------3---S---x--S--------S----5--S----5--S---4--S---4----4---------|
G|-0--L---2s4-----L---8--L----8---L----5--L----5--L---5--L------------------| X3
D|-0--A-----------A---7--A----7---A----5--A---5---A---x--A------------------|
A|-x--P-----------P---6--P---6----P-------P--3----P---5--P--5------5--------|
E|-3-----3------------7-----7---------5-------------------------------------|

Now I don't have too much to say, so there's no need to listen close
Do you need somebody or do you need me the most
Don't let my love go to waste
I was down to wait
But you can't even tell it to my face
That you you you
No you don't want forever, you just want the pleasure, baby

e|-3---------------------------------------------5------55555~--------------|
B|-3--S----3---S--5--S----5--S-----5--S----5--S--5--S---55555~--------------|
G|-0--L----0---L--7--L----7--L-----5--L----5--L--5--L---55555~--------------|
D|-x--A---2----A--6--A---6---A-----5--A---5---A-----A-----------------------|
A|-x--P--------P--7--P--7----P--------P-------P--5--p---55555~--------------|
E|-3-----3-----------------------0-5-----5----------------------------------|

And I won't lie, we could be so damn good together
But I could do much better on my own, yeah I know

[CHORUS]
e|-x------------------x-------------------------------5------3h5-3----------|
B|-3--S-------3---S---x--S--------S----5--S----5--S---4--S---4----4---------|
G|-0--L---2s4-----L---8--L----8---L----5--L----5--L---5--L------------------|
D|-0--A-----------A---7--A----7---A----5--A---5---A---x--A------------------|
A|-x--P-----------P---6--P---6----P-------P--3----P---5--P--5------5--------|
E|-3-----3------------7-----7---------5-------------------------------------|

yeah I know
That I could do much better on my own, 

e|-x------------------x--------------------------------55555\---------------|
B|-3--S-------3---S---x--S--------S----5--S----5--S----55555\---------------|
G|-0--L---2s4-----L---8--L----8---L----5--L----5--L----55555\---------------|
D|-0--A-----------A---7--A----7---A----5--A---5---A-------------------------|
A|-x--P-----------P---6--P---6----P-------P--3----P--0-55555\---------------|
E|-3-----3------------7-----7---------5-------------------------------------|

yeah I know

e|-x------------------x-------------------------------5------3h5-3----------|
B|-3--S-------3---S---x--S--------S----5--S----5--S---4--S---4----4---------|
G|-0--L---2s4-----L---8--L----8---L----5--L----5--L---5--L------------------|
D|-0--A-----------A---7--A----7---A----5--A---5---A---x--A------------------|
A|-x--P-----------P---6--P---6----P-------P--3----P---5--P--5------5--------|
E|-3-----3------------7-----7---------5-------------------------------------|

I said I'm better on my own
I'm better on my own
Oh yeah ya yeah, oh yeah ya yeah

e|-3-----------------------------------------------55555\-------------------|
B|-3--S----3---S--5--S----5--S-----5--S----5--S----55555\-------------------|
G|-0--L----0---L--7--L----7--L-----5--L----5--L----55555\-------------------|
D|-x--A---2----A--6--A---6---A-----5--A---5---A-----------------------------|
A|-x--P--------P--7--P--7----P--------P-------P--0-55555\-------------------|
E|-3-----3-----------------------0-5-----5----------------------------------|

I'm better on my own
I'm better on my own
Oh yeah yeah, oh yeah ya yeah

[BRIDGE]
e|--------------------------------------------------------------------------|
B|-3--S----3------S-------S--------S---8----S----8--S---8--S----8-----------|
G|-4--L----4------L---8---L----8---L---9----L----9--L---8--L----8-----------|
D|-5--A---5-------A---7---A----7---A---9----A---9---A---9--A---9------------|
A|----P-----------P---6---P---6----P---7----P--7----P--77--P--7-------------|
E|-3-----3------------7------7--------0-------------------------------------|

If you're better on your own and you wanna let him know
Say yeah ya yeah, yeah ya yeah

e|-------------------------------------------------------------------------------------55555\---|
B|--8--S-----8--S---5---S----5--S---5--S----5--S----7--S----7--S----8---S-----8--S-----55555\---|
G|--7--L-----7--L---6---L----6--L---5--L----5--L----7--L----7--L----9---L-----9--L-----55555\---|
D|--9--A----9---A---5---A---5---A---5--A---5---A----7--A---7---A----10--A---10---A--------------|
A|-10--P--10----P---X---P-------P------P-------P-------P-------P--------P--------P---0-55555\---|
E|-----------------05------5-------05-----5-------5-7-----7-------7-8------8--------------------|

If you're better on your own
Say yeah ya yeah yeah
Said if you're better oh on your own
Let me hear you say yeeaahh

[CHORUS]
e|-x------------------x-------------------------------5------3h5-3----------|
B|-3--S-------3---S---x--S--------S----5--S----5--S---4--S---4----4---------|
G|-0--L---2s4-----L---8--L----8---L----5--L----5--L---5--L------------------|
D|-0--A-----------A---7--A----7---A----5--A---5---A---x--A------------------|
A|-x--P-----------P---6--P---6----P-------P--3----P---5--P--5------5--------|
E|-3-----3------------7-----7---------5-------------------------------------|

Said I could do much better on my own

e|-3---------------------------------------------55555\---------------------|
B|-3--S----3---S--5--S----5--S-----5--S----5--S--55555\---------------------|
G|-0--L----0---L--7--L----7--L-----5--L----5--L--55555\---------------------|
D|-x--A---2----A--6--A---6---A-----5--A---5---A-----------------------------|
A|-x--P--------P--7--P--7----P--------P-------P--55555\---------------------|
E|-3-----3-----------------------0-5-----5----------------------------------|

I said I'm better on my own, babe

[OUTRO]
e|-x------------------x-------------------------------5------3h5-3----------|
B|-3--S-------3---S---x--S--------S----5--S----5--S---4--S---4----4---------|
G|-0--L---2s4-----L---8--L----8---L----5--L----5--L---5--L------------------|
D|-0--A-----------A---7--A----7---A----5--A---5---A---x--A------------------|
A|-x--P-----------P---6--P---6----P-------P--3----P---5--P--5------5--------|
E|-3-----3------------7-----7---------5-------------------------------------|

I said I could do much better
I could do much better
I could do much better
Said I could do much better

e|-3---------------------------------------------5\~------------------------|
B|-3--S----3---S--5--S----5--S-----5--S----5--S--5\~------------------------|
G|-0--L----0---L--7--L----7--L-----5--L----5--L--5\~------------------------|
D|-x--A---2----A--6--A---6---A-----5--A---5---A-----------------------------|
A|-x--P--------P--7--P--7----P--------P-------P--5\~------------------------|
E|-3-----3-----------------------0-5-----5----------------------------------|

I could do much better
Said I could do much better
Said I could do much better on my own, baby

***************************

| /  slide up
| \  slide down
| h  hammer-on
| p  pull-off
| ~  vibrato
| +  harmonic
| x  Mute note

***************************




            
            
Suggest correction
Creating personal tab
Creating personal tab
You can edit any tab online and save it as your Personal.

You can edit, replace or remove any tab part or add personal notes – all changes will be seen only by you.

Personal tabs can be accessed anytime from any device, even offline.
Learn more »
comments
print report bad tab
guest
You may want to rate the tab now too:
select rating
Wanna post a correction for this tab? Suggest correction