Oops, an error
Loading. Please wait.

Helplessly tab

12,394 views 78 this week
1 commentread comment
1 2 3 4 5
x 11
add to favorites
×
Save as Personal and add changes to this tab that will be seen only by you. Learn more ›
×
You can save this tab as Personal to edit and correct it or add notes. All changes will be seen only by you. Learn more »
launch autoscroll
font size
0
reset
how to read this tab
guitar tuner
edit
Autoscroll
slow
fast
+/-
esc
set tempo
stop
-------------------------------------------------------------------------------
                             HELPLESSLY - Tatiana Manaois
-------------------------------------------------------------------------------
Tabbed by: CPAS36
E-mail: oahu15@gmail.com

Tuning: Capo 3

Hi guys! This is my first tab ever so please let me know if there's something
wrong, and I'll be happy to change it. Thanks, I hope you enjoy this song as
much as I do!

Original Video: youtube.com/watch?v=paZmiQRpwK0
Official Music Video: youtube.com/watch?v=59Vf7oQV9pg


[Intro]
(pick entire intro)
e|--------------|-------------------|-------------------|-----------------|
B|--------------|-------------------|-------------------|-----------------|
G|--------0-----|--------2----------|--------0----------|-----------------|
D|--------0-----|-----0--0---0---0--|-----0--0---0---0--|-----------------|
A|-----2--------|--0-----------2----|--2-----------2----|--3--3--3--2--0--|
E|--3-----------|-------------------|-------------------|-----------------|

e|-------------------|-------------------|-------------------|-----------------|
B|-------------------|-------------------|-------------------|-----------------|
G|--------0----------|--------2----------|--------0----------|-----------------|
D|--------0---0---0--|-----0--0---0---0--|-----0--0---0---0--|-----------------|
A|-----2--------2----|--0-----------2----|--2-----------2----|--3--3--3--2--0--|
E|--3----------------|-------------------|-------------------|-----------------|


[Verse 1]
(pick entire verse)
e|----------|----------|----------|----------|
B|----------|----------|----------|----------|  x3
G|-------0--|-------2--|-------0--|-------0--|
D|-------0--|-------0--|-------0--|-------2--|
A|----------|--0-------|--2-------|--3-------|
E|--3-------|----------|----------|----------|

e|----------|----------|----------|----------|
B|----------|----------|----------|----------|
G|-------0--|-------2--|-------0--|--0-------|
D|-------0--|-------0--|-------0--|--2-------|
A|----------|--0-------|--2-------|--3-------|
E|--3-------|----------|----------|----------|


[Pre-Chorus]
(palm-mute entire pre-chorus)
e|-----------|-----------|-----------|-----------|
B|-----------|-----------|--0--0--0--|--1--1--1--|
G|-----------|--2--2--2--|--0--0--0--|--0--0--0--|
D|--0--0--0--|--0--0--0--|--2--2--2--|--2--2--2--|
A|--2--2--2--|--0--0--0--|-----------|--3--3--3--|
E|--3--3--3--|-----------|-----------|-----------|

e|-----------|-----------|-----------|--------------|
B|-----------|-----------|--0--0--0--|--1--1--1-----|
G|-----------|--2--2--2--|--0--0--0--|--0--0--0--0--|
D|--0--0--0--|--0--0--0--|--2--2--2--|--2--2--2--0--|
A|--2--2--2--|--0--0--0--|-----------|--3--3--3--2--|
E|--3--3--3--|-----------|-----------|--------------|

e|-----------|-----------|-----------|-----------|
B|-----------|-----------|--0--0--0--|--1--1--1--|
G|-----------|--2--2--2--|--0--0--0--|--0--0--0--|
D|--0--0--0--|--0--0--0--|--2--2--2--|--2--2--2--|
A|--2--2--2--|--0--0--0--|-----------|--3--3--3--|
E|--3--3--3--|-----------|-----------|-----------|

e|-----------|-----------|-----------|-----------------|
B|-----------|-----------|--0--0--0--|--1--1--1--------|
G|-----------|--2--2--2--|--0--0--0--|--0--0--0--0--0--|
D|--0--0--0--|--0--0--0--|--2--2--2--|--2--2--2--0--0--|
A|--2--2--2--|--0--0--0--|-----------|--3--3--3--2--0--|
E|--3--3--3--|-----------|-----------|-----------------|

e|----------|-----------|--------------|----------|
B|----------|-----------|--3--3--3--3--|--3-------|
G|--0-------|--------0--|--2--2--2--2--|--2-------|
D|--2-------|--------2--|--0--0--0--0--|--0-------|
A|--2-------|--------2--|--------------|----------|
E|----------|-----------|--------------|----------|


[Chorus]
(pick)
e|-----------|-----------|-----------|--------------|
B|-----------|-----------|-----------|--------------|
G|--0----0---|--2----2---|--0----0---|--0--0--0--0--|
D|--0----0---|--0----0---|--2----2---|--2--2--2--0--|
A|-----------|--0----0---|--2----2---|--3--3--3--2--|
E|--3----3---|-----------|-----------|--------------|
(pick)
e|-----------|-----------|----------|-----------|
B|-----------|-----------|--0-------|--1--------|
G|--0----0---|--2----2---|--0-------|--0--------|
D|--0----0---|--0----0---|--2-------|--2--------|
A|-----------|--0----0---|--2-------|--3--------|
E|--3----3---|-----------|----------|-----------|
(palm mute)
e|--------------|-------x---|
B|--1--1--1--1--|--1----x---|
G|--0--0--0--0--|--0----x---|
D|--2--2--2--2--|--2----x---|
A|--3--3--3--3--|--3----x---|
E|--------------|-------x---|


[Verse 2]
(pick)
e|-----------|----------|-----------|----------|
B|-----------|----3-----|--0----0---|--1-------|
G|--0----0---|----2-----|--0----0---|--0-------|
D|--0----0---|----0-----|--2----2---|--2-------|
A|-----------|----0-----|--2----2---|--3-------|
E|--3----3---|----------|-----------|----------|
(pick)
e|-----------|-----------|-----------|----------|
B|-----------|--3----3---|--0---0----|--1-------|
G|--0----0---|--2----2---|--0---0----|--0-------|
D|--0----0---|--0----0---|--2---2----|--2-------|
A|-----------|--0----0---|--2---2----|--3-------|
E|--3----3---|-----------|-----------|----------|
(palm-mute)
e|-----------|-----------|-----------|-----------|
B|-----------|-----------|--0----0---|--1----1---|
G|-----------|--2----2---|--0----0---|--0----0---|
D|--0----0---|--0----0---|--2----2---|--2----2---|
A|--2----2---|--0----0---|-----------|--3----3---|
E|--3----3---|-----------|-----------|-----------|
(palm-mute)
e|-----------|-----------|--------------|--------x--|
B|-----------|-----------|--1--1--1--1--|--1-----x--|
G|-----------|--2----2---|--0--0--0--0--|--0-----x--|
D|--0----0---|--0----0---|--2--2--2--2--|--2-----x--|
A|--2----2---|--0----0---|--3--3--3--3--|--3-----x--|
E|--3----3---|-----------|--------------|--------x--|


[Pre-Chorus]
(pick)
e|----------|----------|----------|----------|
B|--0-------|--3-------|--0-------|--1-------|  x4
G|--0-------|--2-------|--0-------|--0-------|
D|--0-------|--0-------|--2-------|--2-------|
A|----------|--0-------|--2-------|--3-------|
E|--3-------|----------|----------|----------|
                       (palm-mute)
e|----------|----------|------------|----------|
B|----------|----------|--3--3--3---|----------|
G|--0-------|----------|--2--2--2---|----------|
D|----------|----------|--0--0--0---|----------|
A|--2-------|----------|------------|----------|
E|----------|----------|------------|----------|


[Chorus]
(pick entire chorus)
e|----------|----------|----------|----------|
B|--0-------|--3-------|--0-------|--1-------|  x4
G|--0-------|--2-------|--0-------|--0-------|
D|--0-------|--0-------|--2-------|--2-------|
A|----------|--0-------|--2-------|--3-------|
E|--3-------|----------|----------|----------|


[Outro]
(pick)
e|----------|
B|----------|
G|--0-------|
D|--0-------|
A|--2-------|
E|--3-------|

:)



************************************

| x  Dead note

************************************

            
            
Suggest correction
Creating personal tab
Creating personal tab
You can edit any tab online and save it as your Personal.

You can edit, replace or remove any tab part or add personal notes – all changes will be seen only by you.

Personal tabs can be accessed anytime from any device, even offline.
Learn more »
comments
print report bad tab
1 comment total.
0 reply
smk115 10 Feb 16, 2016 11:01 AM

Good job dude. It's capo 3 if you play it like the original video and its capo 4 with a little less fingering if you play the album version.

guest
You may want to rate the tab now too:
select rating
Wanna post a correction for this tab? Suggest correction